Song name
# A B C D E F G H I J K L M N O P Q R S T U V W X Y Z

Counting Crows - Someday I Will Treat You Good tab

-------------------------------------------------------------------------------
	      Counting Crows - Someday I will treat you good
-------------------------------------------------------------------------------
Tabbed by: Nicolas Levy (acade365@hotmail.com)

CAPO 5
Everything relative to capo

Tuning: Standard
Note: in the verse, the Dm can be replaced by a Dsus2(x00320) when you feel like it

Guitar 1:     Am - G - Dm      x4

Guitar 2:
e|-----0-0------0-0------------5-5-\-3-\-1-0h1-----0-----0-------0-----------|
B|---------------------------------------------3-----1------0----------------|
G|-2-2-----2-2-----------------------------------------------------2---------|
D|---------------------------------------------------------------------------|
A|---------------------------------------------------------------------------|
E|---------------------------------------------------------------------------|

e|--5-5-\-3-\-1-0-1-----0----0----0------------------------------------------|
B|------------------3-----1----0----------0----------------------------------|
G|----------------------------------0--0----2--------------------------------|
D|---------------------------------------------------------------------------|
A|---------------------------------------------------------------------------|
E|---------------------------------------------------------------------------|

e|-8-/-10-10--10-8-7-8-5---3-2-1-0-----5-5-\-3-\-1-0h1----0---0---0----------|
B|------------------------------------------------------3---1---0---0-1------|
G|----------------------------------------------------------------------0-2--|
D|---------------------------------------------------------------------------|
A|---------------------------------------------------------------------------|
E|---------------------------------------------------------------------------|

Am                        G     Dm
  there's something going on around here
Am            G             Dm
  I could not crawl back if I tried
Am          G
I couldn't wait around
Dm
I couldn't wait another second
Am                G     Dm
  something going on around here
          G7                      F
I left my baby on the side of the highway
          G7                 F
she just couldn't see things my way


G    F  C                G
someday I will treat you good
G    F  C                G
someday I will treat you fine
G    F  C                G
someday I will treat you good
         F
you know I should


Am                  G               Dm     (Riff 1)
  everything that's made is made to decay
Am                  G             Dm
  well I'm shrinking bones in the sun
Am                  G
  won't you tell me why it is
    Dm                       (riff 2)
the beautiful ones are  crazy
Am                  G                Dm
  she's whispering like a mortician now
          G7                      F
I left my baby on the side of the road
  G7                    F
I left her with a heavy load

G    F  C                G
someday I will treat you good
G    F  C                G
someday I will treat you fine
G    F  C                G
someday I will treat you good
           F
I know I should


Guitar 1:
  Dm                  Am          Bm      F     Am    Bm    F

Guitar 2:
e|-10--10-/-12-/-8-------------------------------------|
B|-----------------------------------------------------|
G|-----------------------------------------------------|
D|-----------------------------------------------------|
A|-----------------------------------------------------|
E|-----------------------------------------------------|


Am              G      Dm
something going on around here

I could not crawl back if I tried

          G7                      F
I left my baby on the side of the road
  G7                    F
I left her with a heavy load

G    F  C                G
someday I will treat you good
G    F  C                G
someday I will treat you fine
G    F  C                G
someday I will treat you good
           F
I know I should



Riff 1:
e|--5-5-\-3-\-1-0h1----0-----------------------------------------------------|
B|---------------------------------------------------------------------------|
G|---------------------------------------------------------------------------|
D|---------------------------------------------------------------------------|
A|---------------------------------------------------------------------------|
E|---------------------------------------------------------------------------|

Riff 2:
e|---------------------------------------------------------------------------|
B|-3-1-3-1---1-0-1-0---------------------------------------------------------|
G|---------------------------------------------------------------------------|
D|---------------------------------------------------------------------------|
A|---------------------------------------------------------------------------|
E|---------------------------------------------------------------------------|

| /  slide up
| \  slide down
| h  hammer-on
===============================================================================
Tap to rate this tab
# A B C D E F G H I J K L M N O P Q R S T U V W X Y Z