Song name
# A B C D E F G H I J K L M N O P Q R S T U V W X Y Z

Counting Crows - Hazy tab

Help us improve GuitareTab! Take a short survey!
Hazy
Counting Crows
New Amsterdam Tour

Piano adapted to guitar. Standard Tuning. The verse consists on the regular playing of F 
Am with a single note between those two chords.-

Intro

     F            Am             F            Am
e|---1-----13------0------3------1-----13------0-----------------------------|
B|---1-------------1-------------1-------------1------3----------------------|
G|---2-------------2-------------2-------------2-----------------------------|
D|---3-------------2-------------3-------------2-----------------------------|
A|---3-------------0-------------3-------------0-----------------------------|
E|---1---------------------------1-------------------------------------------|


     F            Am             F            Am
e|---1-----13------0------5------1-----13------0-----3-----------------------|
B|---1-------------1-------------1-------------1-----------------------------|
G|---2-------------2-------------2-------------2-----------------------------|
D|---3-------------2-------------3-------------2-----------------------------|
A|---3-------------0-------------3-------------0-----------------------------|
E|---1---------------------------1-------------------------------------------|

Verse 1:

F                                          Am
   When you disappear on me it's just like     parades in the rain

e|---1----------------13-------------------0-----------------------5---------|
B|---1-------------------------------------1---------------------------------|
G|---2-------------------------------------2---------------------------------|
D|---3-------------------------------------2---------------------------------|
A|---3-------------------------------------0---------------------------------|
E|---1-----------------------------------------------------------------------|

F                               Am
  Every time i see you you just     disappear again

e|---1---------13---------------0---------------5----------------------------|
B|---1--------------------------1--------------------------------------------|
G|---2--------------------------2--------------------------------------------|
D|---3--------------------------2--------------------------------------------|
A|---3--------------------------0--------------------------------------------|
E|---1-----------------------------------------------------------------------|

F                                         Am
  Every time you're leaving i don't know      what to say

e|---1---------------13--------------------0---------------5-----------------|
B|---1-------------------------------------1---------------------------------|
G|---2-------------------------------------2---------------------------------|
D|---3-------------------------------------2---------------------------------|
A|---3-------------------------------------0---------------------------------|
E|---1-----------------------------------------------------------------------|

F                             Am
  I wanna see this whole town go away

e|---1---------13-------------0---------------5------------------------------|
B|---1------------------------1----------------------------------------------|
G|---2------------------------2----------------------------------------------|
D|---3------------------------2----------------------------------------------|
A|---3------------------------0----------------------------------------------|
E|---1-----------------------------------------------------------------------|


Chorus 1:

             Dm     e|-----5---|
So could you tell me
             G
why you're leaving
              C           Am        F
cause I don't know why it has to be so
          Dm     e|-----5---|
could you tell me
           G
why you're leaving
              C      Am           F            C
cause I don't know I don't know I don't know I don't know


Verse 2:
Same  F Am progression with the same tab:
e|---1---------------13--------------------0---------------5-----------------|
B|---1-------------------------------------1---------------------------------|
G|---2-------------------------------------2---------------------------------|
D|---3-------------------------------------2---------------------------------|
A|---3-------------------------------------0---------------------------------|
E|---1-----------------------------------------------------------------------|

F            Am
   All these ending love songs
F               Am
   come into my eyes
F                    Am
   but every time i see you
     F          Am
I'm alive, I'm alive

Chorus 2:

             Dm     e|-----5---|
So could you tell me
             G
why you're leaving
              C           Am        F
cause I don't know why it has to be so
          Dm     e|-----5---|
could you tell me
           G
why you're leaving
              C      Am           F            C
cause I don't know I don't know I don't know I don't know
  C
I don't know
Related for Hazy tab