Song name
# A B C D E F G H I J K L M N O P Q R S T U V W X Y Z

Counting Crows - Up All Night tab

Date: Mon, 09 Jun 2008
From: Declan 

Artist:  Counting Crows
Song:    Up All Night (Solo)
Album:   This is my first tab and I know its not 100% correct. The
         ending was hard to get down.  Email me with what you think
         or corrections.  Thanks

----------------------------------------------------------------------|
----------------------------------------------------------------------|
---------------------------------------/12--15--12--15--12--15--12----|
12-12--12h10-8---13-13-13-12s10s12-8----------------------------------|
----------------------------------------------------------------------|
----------------------------------------------------------------------|

-------------------------------------------------------------------|
-----------------------------------s15-18--15-16--15-18--15-16--15-|
-15--12-15-12-15b17--17ub15-12-15----------------------------------|
-------------------------------------------------------------------|
-------------------------------------------------------------------|
-------------------------------------------------------------------|

------------------------------s15-17-18---s15-17-15-17s18-20-21-22-|
18--15-16---15-16-15-18-15-----------------------------------------|
---------------------------15--------------------------------------|
-------------------------------------------------------------------|
-------------------------------------------------------------------|
-------------------------------------------------------------------|

22-22--------------------------------------------------------------|
-------------------------------------------------------------------|
-------------------------------------------------------------------|
-------------------------------------------------------------------|
-------------------------------------------------------------------|
-------------------------------------------------------------------|
Tap to rate this tab
# A B C D E F G H I J K L M N O P Q R S T U V W X Y Z