Guitaretab - guitar tabs
Song name
# A B C D E F G H I J K L M N O P Q R S T U V W X Y Z

Counting Crows - On A Tuesday In Amsterdam Long Ago tab

-------------------------------------------------------------------------------
On A Tuesday In Amsterdam Long Ago - Counting Crows
-------------------------------------------------------------------------------
Tabbed by: Bill Clark
Email: shaidarelam@gmail.com

Tuning: Standard


One of the saddest songs I've ever heard.  There's a great chord listing of it
here, but I sounded out the piano solo after the ?second? chorus.  I'm quite
sure this is correct, except possibly the double notes, which I note below.

E|-----------------------------------------------------|
B|-------------13-10--------------------------10-10-11-|
G|-10-----9-10------------9-9-9-9-10-10-12-12----------|
D|-----------------------------------------------------|
A|-----------------------------------------------------|
D|-----------------------------------------------------|

[ Tab from: http://www.guitaretab.com/c/counting-crows/186174.html ]
E|---------------------------12-10---------------------|
B|-10-11-13------------10-13---------------------------|
G|------------------12---------------------------------|
D|-----------------------------------------------------|
A|-----------------------------------------------------|
D|-----------------------------------------------------|


This part sounds right to me, but I'm not positive.
E|-----------------------------------------------------|
B|-----10--8-------10--8-------10--8-------10--8-------|
G|-10--10--10--10--10--10--10--10--10--10--10--10--10--|
D|-----------------------------------------------------|
A|-----------------------------------------------------|
D|-----------------------------------------------------|


E|-----------------------------------------------------|
B|-----------------------------------------------------|
G|-------------------------9--10--9--------------------|
D|-9--10--12-------10--12------------------------------|
A|-----------------------------------------------------|
D|-----------------------------------------------------|
Related for On A Tuesday In Amsterdam Long Ago tab
Advertisement will be closed in 10 seconds