Song name
# A B C D E F G H I J K L M N O P Q R S T U V W X Y Z

Counting Crows - Hanging Around tab

None of the tabs seems to get it quite right, and maybe its me or my guitar, but its 
pissing me off for alittle.
I love the crows, I love this song, this is me taking a whack at the tab. Also its my first tab.

INTRO
E|------------------------------------------------------|
B|------------------------------------------------------|
G|------------------------------------------------------|
D|------------------------------------------------------|
A|-------3--5-5/7--7/5--3p2-3--5-----------3--5-5/7-7/5-|
E|-1-3/5------------------------0---1-3/5---------------|

E|------------------------------------------------------|
B|------------------------------------------------------|
G|------------------------------------------------------|
D|------------------------------------------------------|
A|--3h5/7/5p3-h5/7/5p3p0--------------------------------|
E|-----------------------0------------------------------|

Then start back over, that should be the intro guitar. Then the chorus is something like...

CHORUS
E|-------8---------8--------7---8---7--------------| x 4 times
B|----10---10----8---8----8---8---8---8------------|
G|-10----------9--------7--------------------------|
D|-------------------------------------------------|
A|-------------------------------------------------|
E|-------------------------------------------------|


And the verse is something along the lines of...

VERSE
E|---------------------------------------------------|
B|-----1--------1--------0----0----------------------|
G|---2---2----0---0----0---0----0--------------------|
D|-3--------3--------0-------------------------------|
A|---------------------------------------------------|
E|---------------------------------------------------|
  |---------------Palm Muted-------------------------|

Its not perfect, but its better then some of the ones already on here. The chords are 
on piano but guitar works fine.
I stole this next part from some random site, mainly cause it pisses me off when I have 
have a bunch of pages open when
im trying to jam to a song and play the solo and chords or whatever.

F       C                  G
She sat right down on the sofa I said,
"Where have you been? I've been waiting for you.
Cause last night I had something so good
These days get so long and I got nothing to do"

                F      C               G
I been hangin' around this town on the corner
I been bummin' around this old town so long
I been hanginaround this town on the corner
I been bummin' around this old town for way too long

F        C             G
We spend all day getting sober
Just hiding from daylight
Watching TV
We just look a lot better in the blue light
Well, you know I gotta get out
But I'm stuck so tight
Weighed by the chains that keep me...

        F        C              G
Hangin' Around this town on the corner
I been bummin' around this old town too long
I been hanginaround this town on the corner
I been bummin' around this old town for way too long

F             C                G
And this girl listens to the band play
She says "where have you been?
I've been lyin right here on the floor"
Well, I got all this time
To be waiting for what is mine
To be hating what I am
After the light has faded

        F       C               G
Hangin' around this town on the corner
I been bummin' around this old town so long
I been hanginaround this town on the corner
I been bummin' around this old town for way,
way, way, way, way too long
*Repeat and Fade*
Tap to rate this tab
# A B C D E F G H I J K L M N O P Q R S T U V W X Y Z