Song name
# A B C D E F G H I J K L M N O P Q R S T U V W X Y Z

Counting Crows - Goodnight Elizabeth tab

Intro
E|-------------------------------------------------------------------------|
B|-------5---5br---0-5----5---5br---0-5---5---5br---0-5---3-----------5p3--|
G|----------------------------------------------------------------2--------|
D|------------------------------------------------------------2h4---4------|
A|-----7---7--------------------------------------------5---5--------------|
E|--/5-----------5------4---4-----4-----3---3-----3------------------------|

For the Verse and the Chorus I basically just mess around and play a variation of these chords:
E|--------------------------|
B|--5------5------5------3--|
G|--4------4------4------2--|
D|-----------------------0--|
A|--------------------------|
E|--5------4------3---------|

Solo
E|------------------------------------------------------------|
B|-----10-12-12b---12br-10-12~---12br-10-12/15~--14~--10h12---|
G|--/11----------------------------------------------------9--|
D|------------------------------------------------------------|
A|------------------------------------------------------------|
E|------------------------------------------------------------|

E|--------------------------------------9-10-9--10/14-16b-14-/12-10--|
B|-------------------9-10-9-10/12---9/10------10---------------------|
G|----6-7p6-6/9---7/9------9-----------------------------------------|
D|--/7-----7---------------------------------------------------------|
A|-------------------------------------------------------------------|
E|-------------------------------------------------------------------|

E|--10br-8-10-6~~--|
B|-----------------|
G|-----------------|
D|-----------------|
A|-----------------|
E|-----------------|
Tap to rate this tab
# A B C D E F G H I J K L M N O P Q R S T U V W X Y Z