Song name
# A B C D E F G H I J K L M N O P Q R S T U V W X Y Z

Counting Crows - Sullivan Street tab

"Sullivan Street" By the Counting Crows
From "August and Everything After"
Tabbed By Snap 


Verse riff

e---2----2---------------------------
B---3----3---------------------------
G---2----0---------------------------
D---0----0---------------------------
A------------------------------------
E------------------------------------


Chorus riff

e---3----5----0----3-------------------
B---3----5----0----3-------------------
G---4----6----0----4-------------------
D---5----7----2----5-------------------
A---5----7----2----5--------------------
E---3----5----0----3--------------------
*feel free to alternate the G bar chord
With an Open G chord.

Bridge: this part is a just the verse riff but u play the individual 
notes of the 2 chords.

Thats it really, not a hard song to play,listen to the record for the 
rhythmn and the strumming and so forth.
Tap to rate this tab
# A B C D E F G H I J K L M N O P Q R S T U V W X Y Z