Counting Crows - Miami tab

Author/Artist: Counting Crows Title: Miami Transcribed by: Tom Email: Madklikor@aol.com
First guitar is standard Second guitar is dropped-D (!!)

I didn't tab the little fills during the chorus. The live versions seem to be
different, especially the end.
Need corrections for the end.


-|-2--------|--------|--------|-2--------|--------|--------|---------|--------|
-|-3-x16----|-3------|-3------|-3--x16---|-3------|-3------|-3-------|--------|
-|-2--------|-2--x16-|-0--x16-|-2--------|-2--x16-|-2-x16--|-0--x16--|--------|
-|-0--------|-0------|-0------|-0--------|-0------|-2------|-0-------|--------|
-|----------|-2------|-2------|----------|-2------|-0------|-2-------|--------|
-|----------|--------|-3------|----------|--------|--------|-3-------|--------|
    First guitar verse

-|-------|-2----2----|--------|--------|--------------------------------------|
-|-2-----|-3----3----|-3------|--0-----|--------------------------------------|
-|-2-x8--|-2----2----|-4--x8--|--0-----|--------------------------------------|
-|-2-----|-0----x----|-4------|--0-----|--------------------------------------|
-|-0-----|------4----|-2------|--2-----|--------------------------------------|
-|-------|-----------|--------|--3-----|--------------------------------------|
    Chorus       C# played by bass

-|-------------|--------------------------------------------------------------|
-|-------------|--------------------------------------------------------------|
-|-------------|--------------------------------------------------------------|
-|-0-----------|--------------------------------------------------------------|
-|-0-----------|--------------------------------------------------------------|
-|-0-----------|--------------------------------------------------------------|
    Fade in Second Verse  Guitar 2 (a bar = 1 chord)

-|-------------------------|--------------------|------------------|----------|
-|-------------------------|-----3--2---0-2-0---|-----3------3-----|----------|
-|-7-----7--7---7-7--7-7---|---4----------------|------------------|----------|
-|-7-----7--7---7-7--7-7---|--------------------|------------------|----------|
-|-------------------------|-2------------------|------------------|----------|
-|-------------------------|--------------------|--5---------------|----------|

-|-------------------------|---------0----0--|-------2------2-0-----0----------|
-|-------------------------|-------3----3----|---3--------3-------3---3----3---|
-|----2b2rbrbr2------------|-----2-----------|-4---4---------------------4---4-|
-|-0-------------4b5rbr4-2-|-0---------------|---------------------------------|
-|-------------------------|-----------------|---------------------------------|
-|-------------------------|-----------------|---------------------------------|
                                               Let ring

-|---------------------|-------------------------------|----------------------|
-|-x---2-------2-------|-------------------------------|----------------------|
-|-x---2-------2----2--|---7------6h7p6-4-2-0----------|----------------------|
-|-x---2-------2----2--|-7--------------------4-2-0----|----------------------|
-|-----0-------0----0--|----------------------------4--|----------------------|
-|---------------------|-------------------------------|----------------------|
   Solo :

-|----------------------------------------------------------------------------|
-|---------------------------------------------5----5----5-------7b8---7b8----|
-|--------------------------------------7--7---7b9--7b9--7b9--7---------------|
-|-0-----------------0-2-4-----5--4/7-----------------------------------------|
-|-0-------0-2/4-5------------------------------------------------------------|
-|-0--------------------------------------------------------------------------|
    Fade in

--------------------------------------------------------|-----------------------|
-7b8--7b8--7b8r7----------------------------------------|-----------------------|
------------------6b7rbr6-------------------------------|-----------------------|
---------------------------7-4b5rbr4--2--0--------------|-----------------------|
--------------------------------------------5-4-5-4-5-4-|-----------------------|
--------------------------------------------------------|-----------------------|
                                             A.h

-|-------------------------------------------10------10--14---------10/12-----|
-|-10----10----10----10----------10-12----12---------------------12-----------|
-|----11----11----11----11-11-11-------11---------11----------11--------------|
-|----------------------------------------------------------------------------|
-|----------------------------------------------------------------------------|
-|----------------------------------------------------------------------------|

-10/12-10--------------------------------------------10-10-10--9--9--7-7-7-7--|
--------------12b14----12b14---x-12b14r12--10--10----12-12-12-10-10--8-8-8-8--|
-------------------------------x----------------------------------------------|
-------------------------------x----------------------------------------------|
------------------------------------------------------------------------------|
------------------------------------------------------------------------------|

-5\3-3\2-2-----|--------------------------------------------------------------|
-7\5-5\3-3-2-2-|-3------------------------------------------------------------|
---------------|--------------------------------------------------------------|
---------------|--------------------------------------------------------------|
---------------|--------------------------------------------------------------|
---------------|--------------------------------------------------------------|
Bridge : arpegios of the verse chords.

-|----------------|------------------|-----------------------------|----------|
-|----------------|-------2tr3--2-x--|---2tr3---/14tr15--\2tr3-----|----------|
-|-7---7-7---7-7--|-/4------------x--|-----------------------------|----------|
-|-7---7-7---7-7--|------------------|-----------------------------|----------|
-|----------------|------------------|-----------------------------|----------|
-|----------------|------------------|-----------------------------|----------|
    Last Verse             Trill          Trill

-|--------------------------------|-------------------------------------------|
-|--------------------------------|-------------------------------------------|
-|------7--------7----------------|-------------------------------------------|
-|-4--------4h5-----4h5-4-2-0-----|-------------------------------------------|
-|--------------------------------|-------------------------------------------|
-|--------------------------------|-------------------------------------------|
                         New Orleans!

-|------------------------------------------------|---------------------------|
-|------------------------------------------------|---------------------------|
-|----11-11----11----11----11----11-14----11-14---|---------------------------|
-|-12-------12----12----12----12------------------|---------------------------|
-|------------------------------------------------|---------------------------|
-|------------------------------------------------|---------------------------|

-|------------------------------------------------|---------------------------|
-|----------------------------10----10------------|---------------------------|
-|-------11-11----11----11-------------11---------|---------------------------|
-|-12----------12----12----12----12----------12---|---------------------------|
-|------------------------------------------------|---------------------------|
-|------------------------------------------------|---------------------------|

-|----------------------10-------------------|--------------------------------|
-|------10--------10-----------12-10---------|--------------------------------|
-|-------------------------------------------|--------------------------------|
-|-12----------12----12----12----------------|--------------------------------|
-|-------------------------------------------|--------------------------------|
-|-------------------------------------------|--------------------------------|

-|--------------------------------------------|-------------------------------|
-|--------------------------------------------|-------------------------------|
-|-------12-------11----12---12----12p11------|-------------------------------|
-|-11/12-------12-------12---12----------12---|-------------------------------|
-|--------------------------------------------|-------------------------------|
-|--------------------------------------------|-------------------------------|
       Not sure about this one at all

-|----------------------------------------|-----------------------------------|
-|----10-10----10----10----10----10-12----|-----------------------------------|
-|----------------------------------------|-----------------------------------|
-|-12-------12----12----12----12----------|-----------------------------------|
-|----------------------------------------|-----------------------------------|
-|----------------------------------------|-----------------------------------|

-|-------------------------------------|--------------------------------------|
-|--------10-10----10----10--12b14vv---|--------------------------------------|
-|-------------------------------------|--------------------------------------|
-|-12-----------12----12---------------|--------------------------------------|
-|-------------------------------------|--------------------------------------|
-|-------------------------------------|--------------------------------------|

-|---------------------------------|------------------------------------------|
-|-14vvv---------------------------|------------------------------------------|
-|-2-------------------------------|------------------------------------------|
-|-2-------------------------------|------------------------------------------|
-|-0-------------------------------|------------------------------------------|
-|---------------------------------|------------------------------------------|
    A second guitar play the A chord

-|---------------------------------|------------------------------------------|
-|-0-------------------------------|------------------------------------------|
-|-0-------------------------------|------------------------------------------|
-|-0-------------------------------|------------------------------------------|
-|-2-------------------------------|------------------------------------------|
-|---------------------------------|------------------------------------------|
    Do know what G2 plays here.

-|----17-17----17----17----17----17-17b19-------|-----------------------------|
-|-15-------15----15----15----15----------------|-----------------------------|
-|----------------------------------------------|-----------------------------|
-|----------------------------------------------|-----------------------------|
-|----------------------------------------------|-----------------------------|
-|----------------------------------------------|-----------------------------|

-|----17-17----17----17----17----21--------|---b22------21b22--------|--------|
-|-15-------15----15----15-----------------|-------------------------|--------|
-|-----------------------------------------|-------------------------|--------|
-|-----------------------------------------|-------------------------|--------|
-|-----------------------------------------|-------------------------|--------|
-|-----------------------------------------|-------------------------|--------|
                                  tremolo pick  Slow bend

-|--------------------------------------|-------------------------------------|
-|--------------------------------------|-------------------------------------|
-|--------------------------------------|-------------------------------------|
-|--------------------------------------|-------------------------------------|
-|--------------------------------------|-------------------------------------|
-|--------------------------------------|-------------------------------------|
    Can't find the guitars at the end...

-|---------------------------------------------------------------|--------------|
-|-14b15brbrbrbrbr-----12--\10----\8--\7---\5--3--2b3brbrbrbrbr--|--------------|
-|---------------------------------------------------------------|--------------|
-|---------------------------------------------------------------|--------------|
-|---------------------------------------------------------------|--------------|
-|---------------------------------------------------------------|--------------|
Tap to rate this tab
 
# A B C D E F G H I J K L M N O P Q R S T U V W X Y Z