Song name
# A B C D E F G H I J K L M N O P Q R S T U V W X Y Z

Counting Crows - Good Time tab

Good Time.
Submitted by: Martijn Laman  mlaman@hotmail.com

Here are all the little guitar riffs and the solo to the song.
Use a wah wah for the riffs and any strange effect you have for
the solo. Just make sure you play it freaky.

If you have any corrections, questions or comments, just let me know.

Time indications above the tab

  0:14               1:18                 1:26
e:-------------------------------------------------------|
B:-------8-6---------------------------------------------|
G:-5-/-7-------------------------------------5-(7/)-9-5--|
D:-----------------------------------------7-------------|
A:-------------------------------------------------------|
E:--------------------5-8-5-8-10\------------------------|

Solo
  1:53          2:03                    2:11     2:14
e:---------------------------------------------------------------------|
B:-------6vvv---8b10vvv--8b10r8-6-------6vv\---------6-8---8-(b10)-6---|
G:-/7vvv--------------------------7vvv-----------5-7-----------------7-|
D:---------------------------------------------------------------------|
A:---------------------------------------------------------------------|
E:---------------------------------------------------------------------|
   2:18
e:----------------------------------|
B:----------------------------------|
G:----------------------------------|
D:-3vv-h-5-3-h-5-3-h-5-3-h-5brbrbr--|
A:----------------------------------|
E:----------------------------------|

  2:39                     2:46
e:----------------------------------------------|
B:----------------------------------------------|
G:----------------------------5-(7/)-9-7-5------|
D:--------------------------7-------------------|
A:----------------------------------------------|
E:-13-12-8-5-10\--------------------------------|

e:-8-6-5-----------------------------------|
B:-------8-6-------------------------------|
G:-----------------------------------------|
D:-play around with these notes at the end-|
A:-----------------------------------------|
E:-----------------------------------------|
Tap to rate this tab
# A B C D E F G H I J K L M N O P Q R S T U V W X Y Z