Song name
# A B C D E F G H I J K L M N O P Q R S T U V W X Y Z

Counting Crows - Hospital tab

Verse
Guitar 1
e|-----------------------------------------|
B|-1------1------1------1-------111--1-----|
G|-0------2------2------0-------000--0-----|
D|-2------2------3------2-------222--2-----|
A|-3(x22)-0-(x8)-3-(x6)-3-(x12)-xxx--3(x8)-|
E|---------------1--------------333--------|

Guitar 2 (random plays this through most of the song)
e|--------|
B|--------|
G|--------|
D|-101010-|
A|--x-x-x-|
E|--8-8-8-|


Chorus

Guitar 1
just keeps playing this C Chord
e|-------|
B|-1-1-1-|
G|-0-0-0-|
D|-2-2-2-|
A|-3-3-3-|
E|-------|

Guitar 2 (listen for timing and stuff)
e|--------|
B|--------|
G|--------|
D|-101010-|
A|--x-x-x-|
E|--8-8-8-|

Guitar 3
(x2)
e|--------------------------------------------------------------------|
B|-5---5---5---5----5---5---5---5----6---6---6---6----5---5---5---5---|
G|---5---5---5---5----5---5---5---5----5---5---5---5----5---5---5---5-|
D|--------------------------------------------------------------------|
A|--------------------------------------------------------------------|
E|--------------------------------------------------------------------|

"Honest to God if you don't"
e|--------------------------------------------------------------------|
B|-8---8---8---8----8---8---8---8----6---6---6---6----5---5---5---5---|
G|---5---5---5---5----5---5---5---5----5---5---5---5----5---5---5---5-|
D|--------------------------------------------------------------------|
A|--------------------------------------------------------------------|
E|--------------------------------------------------------------------|

"You don't have to stay around/all your reasons" etc
e|-----------------------------------------------------|
B|-6---6---6---6----5---5---5---5----6---6---6---6-----|
G|---5---5---5---5----5---5---5---5----5---5---5---5---|
D|-----------------------------------------------------|
A|-----------------------------------------------------|
E|-----------------------------------------------------|


Solo
Guitar 3
e|------------------------------------------------------------------------------|
B|-13p12-----13p12-----13p12------12h13-12h13------13----1313---15-15-13-12-13--|
G|------1212------1212------1212----------------12----12------12----------------|
D|------------------------------------------------------------------------------|
A|------------------------------------------------------------------------------|
E|------------------------------------------------------------------------------|

e|------------------------------12----12----12---12---12--12--12---|
B|---13----1313---15-15-13-12------13----13----13---13--13--13--13-|
G|-12----12-----12-------------------------------------------------|
D|-----------------------------------------------------------------|
A|-----------------------------------------------------------------|
E|-----------------------------------------------------------------|

Guitar 1
just keeps playing this C Chord
e|-------|
B|-1-1-1-|
G|-0-0-0-|
D|-2-2-2-|
A|-3-3-3-|
E|-------|

Guitar 2
              Before last verse
e|--------------|---------|
B|--------------|---------|
G|--------------|---------|
D|-10~~~~~~~~~~-|-10------|
A|--x~~~~~~~~~~~|-x--(x6)-|
E|--8~~~~~~~~~~-|-8-------|


Repeat Verse and Chorus once more
Tap to rate this tab
# A B C D E F G H I J K L M N O P Q R S T U V W X Y Z