Song name
# A B C D E F G H I J K L M N O P Q R S T U V W X Y Z

Counting Crows - Mrs Potters Lullaby tab

Help us improve GuitareTab! Take a short survey!
Counting Crows- Mrs Potters Lullaby
Hey ive tabbed the riffs from the first verse that for some reason everyone leaves out of their tabs.

Hey everyone this is my first tab, im pretty sure its right.
If u think its wrong or needs amemding email me at tabs@stickykey.co.uk


^= Bend up
/= Slide

VERSE 1
Well I woke in mid-afternoon cause that's when it all hurts the most,
I dream I never know anyone at the party and I'm always the host,
If dreams are like movies, then memories are films about ghosts,
You can never escape, you can only move south down the coast,

Well, I am an idiot walking a tightrope of fortune and fame,

(this is the first riff)
----12^-12------10---------|
--------------------12-----|
---------------------------|
---------------------------|
---------------------------|
---------------------------|

I am an acrobat swinging trapezes through circles of flame

(second riff)
-----9-9-9-12-9------------14-12-9----|
----------------12----9------------12-|
--------------------------------------|
--------------------------------------|
--------------------------------------|
--------------------------------------|

If you've never stared off in the distance, then your life is a shame

(third riff)

----12^-----14^/11-------|
-------------------------|
-------------------------|
-------------------------|
-------------------------|
-------------------------|

And though I'll never forget your face, sometimes i can't remember my name,

(fourth riff)

----12^----14-12-9---------|
---------------------------|
---------------------------|
---------------------------|
---------------------------|
---------------------------|
Related for Mrs Potters Lullaby tab