Song name
# A B C D E F G H I J K L M N O P Q R S T U V W X Y Z

Counting Crows - Mr Jones tab

Help us improve GuitareTab! Take a short survey!
 #----------------------------------PLEASE NOTE--------------------------------#
#This file is the author's own work and represents their interpretation of the#
#song. You may only use this file for private study, scholarship, or research.#
#-----------------------------------------------------------------------------#
#-- File created with Instab - http://www.pconline.com/~smcarey/instab.html --#
#-----------------------------------------------------------------------------#

Author/Artist: Counting Crows
Title: Mr. Jones
Transcribed by: Saverain
d strum down
u strum up
m mute
x scratch string muted

Standard Tuning (Guitar 1 Tabbed)

-----------|----0--0-0---1-1--1--1-1--------1--1-1---3-3--3--3-3-x-0-|--------|
-----------|-1--1--1-1-x-1-1--1--1-1-x-3-3--3--3-3-x-3-3--3--3-3-x-0-|--------|
-----------|-2--2--2-2-x-2-2--2--2-2-x-2-2--2--2-2-x-0-0-----0-0-----|--------|
-----------|-2--2--2-2-x-3-3--3--3-3-x-0-0--0--0-0-x-0-0-----0-0-----|--------|
-----------|---------------------------------------------------------|--------|
-----------|---------------------------------------------------------|--------|
  Verse Pt 1 d  d  d u d u d  d  d u                         d u d uTo Pt2

------|----0--0-0---1-1--1--1-1---3-3--3--3-3--------3--3-3-x-0-|-------------|
------|-1--1--1-1-x-1-1--1--1-1-x-3-3--3--3-3----3-3-3--3-3-x-0-|-------------|
------|-2--2--2-2-x-2-2--2--2-2-x-0-0-----0-0----0-0-0--0-0-----|-------------|
------|-2--2--2-2-x-3-3--3--3-3-x-0-0-----0-0-0--0-0----0-0-----|-------------|
------|---------------------------------------x-----------------|-------------|
------|---------------------------------------3-----------------|-------------|
  Verse Pt 2                              d u d  d u d  d u d u

------|-0--0--0-0---1-1--1--1-1---3-3--3--3-3-3-3-3--3-3--3-x---|-------------|
------|-1--1--1-1-x-1-1--1--1-1-x-3-3--3--3-3-3-3-3--3-3--3-x-0-|-------------|
------|-0--0--0-0-x-2-2--2--2-2-x-0-0--0--0-0-0-0-0--0-0--0---0-|-------------|
------|-2--2--2-2-x-3-3--3--3-3-x-0-0--0--0-0-0-0-0--0-0--0---0-|-------------|
------|-3--3--3-3---3-3--3--3-3-----x---------------------------|-------------|
------|-----------------------------3---------------------------|-------------|
  Chorus                          u d  d  d u d u d  d u  u d u

------|--------0--------------------------------------------------------------|
------|-1------1------1------------1------------1------------1----------------|
------|-2------2------2------------2------------2------------2----------------|
------|-2------3------2-----5------2------------2-----5------2-----------2----|
------|-0------3------0-----5------0-----3------0-----5------0-----3-----0----|
------|--------1------------3------------1------------3------------1----------|
  Interlude

-----------------------|------------------------------------------------------|
-----------------------|------------------------------------------------------|
-----------------------|------------------------------------------------------|
--5--5--5--5--5--5-5-5-|------------------------------------------------------|
--5--5--5--5--5--5-5-5-|------------------------------------------------------|
--3--3--3--3--3--3-3-3-|------------------------------------------------------|
Related for Mr Jones tab