Guitaretab - guitar tabs
Song name
# A B C D E F G H I J K L M N O P Q R S T U V W X Y Z

Counting Crows - Walkaways tab

e-----3----3--3--3-----3-----------3---3--3--3----------3--3--3--3----|
b-----3----3--3--3-----3-----------3---3--3--3----------3--3--3--3----|
g-----0----0--0--0-----0-------0---2---2--2--2-------0--2--2--2--2----|
d-----0----0--0--0-----0------0-0--0---------0------0---2--2--2--2----|
a-----2----------------2---2h------0---------0---2h---0---------------|
e-----3-------------3--3----------------------------------------------|


e-----------3--3--3--3--3--3--3--3--3------------|
b-----------1--1--1--1--1--1--1--1--1------------|
g-------0---0--0--0--0--0--0--0--0--0------------|
d-----0-----2--2--2--2--2--2--2--2--2------------|
a--2h----3--3------------------------------------|
e-----------0------------------------------------|
[ Tab from: http://www.guitaretab.com/c/counting-crows/4140.html ]
Related for Walkaways tab
Walkaways chords by Counting Crows