Song name
# A B C D E F G H I J K L M N O P Q R S T U V W X Y Z

Counting Crows - Around Here tab

Intro/ Verse
e-------------------------|
b-------------------------|
g--0------2---------------|
d---(x5)-0-(x5)---------0-|
a-3-------------2-(x5)----|(x5)
E--------------0-------3--|

Chrous

e-3-|-2-|---|-3-|
b-3-|-3-|---|-3-|
g-0-|-2-|---|-0-|
d-2-|---|-2-|-0-|
a-3-|---|-2-|-2-|
E---|---|---|-3-|
Figure out the strumming pattern by listening to the song.

I
Tap to rate this tab
 
# A B C D E F G H I J K L M N O P Q R S T U V W X Y Z