Song name
# A B C D E F G H I J K L M N O P Q R S T U V W X Y Z

Country Joe And The Fish - Rock And Soul Music Live tab

This is the awesome shorter version on the Woodstock movie.

Bass line:
G|----------------------------|
D|--7-7-----7-55-----5(5)-66--|
A|------7-9------7(7)---------|
E|----------------------------|

A G 
A G
A G

Solo on:
e|-----------------------------------------11--13--15-------|
B|---------------------------------11--13-------------------|
G|----------------------8--10--12---------------------------|
D|---------------8--10--------------------------------------|
A|-----6--8--10---------------------------------------------|
E|--8-------------------------------------------------------|


A     A              G  
Your love is like a rainbow
A     A              G
Your love is like a rainbow
A     A              G
Your love is like a rainbow darlin
A     A              G
Your love is like a ahhh!

D       D             C
Fallin’ all around my shoulders
D       D             C 
Fallin’ all around my shoulders 

A     A             G
Your love is like a rainbow
A     A             G
Your love is like a rainbow

   E   D
I love you
A G   A 
I do alright…


D7#9 D7#9 D7#9 D7#9 D7#9
                         MARIJUANA!

A- 577655
G- 355433
E- x79997
D- x57775
D7#9- x5456x
Tap to rate this tab
# A B C D E F G H I J K L M N O P Q R S T U V W X Y Z