Song name
# A B C D E F G H I J K L M N O P Q R S T U V W X Y Z

Country Mice - Rabbit On A Leash tab

Country Mice - Rabbit On A Leash
http://www.myspace.com/wearecountrymice

Intro (guitar starts at around 0:23): dm F (4x)

dm                  F
You run around your carpet

dm                  F
Wearing out your rubber stamps
    dm                   F
But there's ink to leave an answer
C
Lying on the floor

dm                  F
We've all seen better days
dm                  F
But they were gone before you noticed
dm                  F
And now there's no one here
C
To clean the shit we made

Interlude
e----------------------------------------------------|
B---5h6r5--6-6/8-6-5-----5h6r5--6-6/8-6-5------------|
G--------------------5-----------------------5-------|
D----------------------------------------------------|
A----------------------------------------------------|
E----------------------------------------------------|

e----------------------------8-6-5-------------------|
B---5h6r5--6-6/8-6-5---------------5-----------------|
G--------------------5-------------------------------|
D----------------------------------------------------|
A----------------------------------------------------|
E----------------------------------------------------|


dm                  F
You're out there on the wall
dm                  F
Just hanging like a pawner's breakfast
dm                  F
Holding on to what you see
C
But never in the door


dm                  F
That rabbit on the leash
dm                  F
Is dining on a silver platter
dm                  F
Looks like the rain is coming
C
Faster than you think


Interlude (same as above)

dm                  F
We'll mark it with an arrow
dm                  F
Bring it up a year from now
dm                  F
But there ain't never gonna be
C
Another twenty four hours like before

dm                  F
So take that rusted water
dm                  F
To the top where it started
dm                  F
Hang it on a chandelier
C
You'll never see again


Solo
e----------------------------------------------------|
B--10br--10br--10br--13/15-15-15br-15-15br-----------|
G----------------------------------------------------|
D----------------------------------------------------|
A----------------------------------------------------|
E----------------------------------------------------|

e--13-13-10-8------------13-13-10-8------------------|
B-------------10-8------------------10-8-------------|
G------------------10-7------------------10-7--------|
D----------------------------------------------------|
A----------------------------------------------------|
E----------------------------------------------------|

e--13-13-10-8----------------------------------------|
B-------------10-8---------13------------------------|
G------------------10-7/12----12---------------------|
D----------------------------------------------------|
A----------------------------------------------------|
E----------------------------------------------------|

e----------------------------------------------------|
B----------------------------------------------------|
G----------------------------------------------------| 2x
D----------------------------------------------------|
A----------------------------------------------------|
E--101010101010101010-131313131313131-88888888888888-|

e----------------------------------------------------|
B----------------------------------------------------|
G----------------------------------------------------|
D----------------------------------------------------|
A----------------------------------------------------|
E--10~-----------------------------------------------|
Tap to rate this tab
# A B C D E F G H I J K L M N O P Q R S T U V W X Y Z