Guitaretab - guitar tabs
Song name
# A B C D E F G H I J K L M N O P Q R S T U V W X Y Z

Couple - Now That I Can See tab

Couple    : Now That I Can See
Tabbed by : Hariz05
Tunning   : Standard (EADGBe)

Another great song by the Malaysia's Power-pop band, COUPLE!
MySpace.com/Couple

This song is pretty east to play.

[INTRO]
e|-------------------------------------|
B|-------------------------------------|
G|----------44444444-55555555-77777777-|
D|-55555555-44444444-55555555-77777777-|
A|-55555555-22222222-33333333-55555555-|
E|-33333333----------------------------|

e|-------------------------------------|
B|-------------------------------------|
G|-99999999-44444444-55555555-77777777-|
D|-99999999-44444444-55555555-77777777-|
A|-77777777-22222222-33333333-55555555-|
E|-------------------------------------|

[VERSE]
e|-------------------------------------|x2
B|-------------------------------------|
G|----------44444444-55555555-77777777-|
D|-55555555-44444444-55555555-77777777-|
A|-55555555-22222222-33333333-55555555-|
E|-33333333----------------------------|

[CHORUS]
e|-----------------------------------|x2
B|-----------------------------------|
G|------------------7777777777777777-|
D|-7777777777777777-7777777777777777-|
A|-7777777777777777-5555555555555555-|
E|-5555555555555555------------------|

Repeat [VERSE] and [CHORUS]

[SOLO]
e|-7777777777777777777777777777-5------|
B|-------------------------------------|
G|-------------------------------------|
D|-------------------------------------|
A|-------------------------------------|
E|-------------------------------------|
[ Tab from: http://www.guitaretab.com/c/couple/109590.html ]
e|-7---------5-7---------5-7---------5-|
B|---5-8-5-8-----5-8-5-8-----5-8-5-8---|
G|-------------------------------------|
D|-------------------------------------|
A|-------------------------------------|
E|-------------------------------------|

e|-777777-5~---------------------------|
B|-------------------------------------|
G|-------------------------------------|
D|-------------------------------------|
A|-------------------------------------|
E|-------------------------------------|

repeat [CHORUS] (no guitar)

[OUTRO]
e|-------------------------------------|
B|-------------------------------------|
G|----------44444444-55555555-77777777-|
D|-55555555-44444444-55555555-77777777-|
A|-55555555-22222222-33333333-55555555-|
E|-33333333----------------------------|\
                                         x2
e|-------------------------------------|/
B|-------------------------------------|
G|-99999999-44444444-55555555-77777777-|
D|-99999999-44444444-55555555-77777777-|
A|-77777777-22222222-33333333-55555555-|
E|-------------------------------------|

End with this:
e|-------------------------------------|
B|-------------------------------------|
G|-7-7-7-7-7-7-7-7-7-7-7-7-------------|
D|-7-7-7-7-7-7-7-7-7-7-7-7-5~----------|
A|-5-5-5-5-5-5-5-5-5-5-5-5-5~----------|
E|-------------------------3~----------|

Lyrics:

Donít you know that I could see
That youíre not afraid of dying
Donít you know that I could see
There is not much use for crying

Now that I can see
Now that I believe

http://www.myspace.com/couple
Related for Now That I Can See tab