Song name
# A B C D E F G H I J K L M N O P Q R S T U V W X Y Z

Couple - Lagu Cinta Untukmu tab

Intro

 G       Em       C      D
e|--------------------------------|
B|--------------------------------|
G|----------------5-5-5-5-7-7-7-7-|
D|5-5-5-5-2-2-2-2-5-5-5-5-7-7-7-7-|
A|5-5-5-5-2-2-2-2-3-3-3-3-5-5-5-5-|
E|3-3-3-3-0-0-0-0-----------------|

Verse

e|--------------------------------|
B|--------------------------------|
G|----------------5-5-5-5-7-7-7-7-|
D|5-5-5-5-2-2-2-2-5-5-5-5-7-7-7-7-|2X
A|5-5-5-5-2-2-2-2-3-3-3-3-5-5-5-5-|
E|3-3-3-3-0-0-0-0-----------------|

  Bm      Em      C       D
e|--------------------------------|
B|--------------------------------|
G|4-4-4-4---------5-5-5-5-7-7-7-7-|
D|4-4-4-4-2-2-2-2-5-5-5-5-7-7-7-7-|
A|2-2-2-2-2-2-2-2-3-3-3-3-5-5-5-5-|
E|--------0-0-0-0-----------------|

================2X==================

Ta da da

e|-------------------------------------------------------------|
B|-------------------------------------------------------------|
G|----------------4-4-4-4-4-4-4-4-2-2-2-2-2-2-2-2-5~-----------|
D|5-5-5-5-5-5-5-5-4-4-4-4-4-4-4-4-2-2-2-2-2-2-2-2-5~-----------|
A|5-5-5-5-5-5-5-5-2-2-2-2-2-2-2-2-0-0-0-0-0-0-0-0-3~-----------|
E|3-3-3-3-3-3-3-3----------------------------------------------|

===================================
 A little solo


Rythm
e|--------------------------------------|
B|--------------------------------------|
G|5-5-5-5-5-5-5-5-7-7-7-7-7-7-7-7-------|
D|5-5-5-5-5-5-5-5-7-7-7-7-7-7-7-7-------|
A|3-3-3-3-3-3-3-3-5-5-5-5-5-5-5-5-------|
E|--------------------------------------|

Lead
e|------------------------------------|
B|------------------------------------|
G|9-9-7-7-----------------------------|
D|--------10-10-9-9-7-7-9-9-9-10-9-9--|
A|------------------------------------|
E|------------------------------------|

====================================

2nd verse 1st part
e|--------------------------------|
B|--------------------------------|
G|--------------------------------|
D|----------------5-5-5-5-7-7-7-7-|2X
A|5-5-5-5-2-2-2-2-3-3-3-3-5-5-5-5-|
E|3-3-3-3-0-0-0-0-----------------|
********palm mute******************
 
e|------------------------------|
B|------------------------------|
G|4~-------------5---5---7---7--|
D|4~------2~-----5---5---7---7--|
A|2~------2~-----3---3---5---5--|
E|--------0~--------------------|

===================================

Solo

Part 1
e|------------------------------------|
B|------------------------------------|
G|9-9-7-7-----------------------------|
D|--------10-10-9-9-7-7-9-9-9-10-9-9--|
A|------------------------------------|
E|------------------------------------|


Part2(dual)

1st Guitar
e|---------------------------------------------------------------------------|
B|---------------------------------------------------------------------------|
G|-7---7-9-7---7-9-7---7-9-7-5-4-5-7---7-9-7---7-9-7---7-9-7-5-4-5-4---0-0---|
D|---------------------------------------------------------------------------|
A|---------------------------------------------------------------------------|
E|---------------------------------------------------------------------------|


2nd Guitar
e|-----------------------------------------------------------------------------------|
B|-8---8-10-8---8-10-8---8-10-12-10-8-7-8---8-10-8---8-10-8---8-10-12-10-8-7-8-------|
G|-------------------------------------------------------------------------------0-0-|
D|-----------------------------------------------------------------------------------|
A|-----------------------------------------------------------------------------------|
E|-----------------------------------------------------------------------------------|

Part 3
e|---------------------------------------------------------------------------|
B|---------------------------------------------------------------------------|
G|-4-4/2-4-5-4~--------------------------------------------------------------|
D|---------------------------------------------------------------------------|
A|---------------------------------------------------------------------------|
E|---------------------------------------------------------------------------|

Tap to rate this tab
 
# A B C D E F G H I J K L M N O P Q R S T U V W X Y Z