Guitaretab - guitar tabs
Song name
# A B C D E F G H I J K L M N O P Q R S T U V W X Y Z

Course Of Nature - Memory Of You tab

----------------------------------------------------------------------------
		     Memory Of You - Course Of Nature
----------------------------------------------------------------------------

Check it out. This is a song off of their new album, Damaged. This is almost %100 perfect.

Intro/verse

1st Guitar (Eletcric Guitar) (Clean)

eb|--------------------------0-0-0-0--|
Bb|--------------------------0-0-0-0--|
Gb|------2-2-----2-------2-2-1-1-1-1--|
Db|--6-7-0-0-6-7-0-2-6-7-0-0-2-2-2-2--|
Ab|--4-4-0-0-4-4-0-0-4-4-0-0-2-2-2-2--|
Db|--4-4-0-0-4-4-0-0-4-4-0-0-2-2-2-2--|

2nd Guitar (Acoustic Guitar)

F#m, D, F#m, D, F#m, D, E
eb|--2-2-0-0-2-2-0-0-2-2-0-0-0-0-|
Bb|--2-2-3-3-2-2-3-3-2-2-3-3-0-0-|
Gb|--2-2-2-2-2-2-2-2-2-2-2-2-1-1-|
Db|--4-4-0-0-4-4-0-0-4-4-0-0-2-2-|
Ab|--4-4-0-0-4-4-0-0-4-4-0-0-2-2-|
Eb|--2-2-----2-2-----2-2-----0-0-|

3rd Guitar (Electric Guitar) (Slightly Distorted)
eb|---------------------------------------------------------|
Bb|---------------------------------------------------------|
Gb|---------------------------------------------------------|
Db|--4-4-4-0-0--0-0--2--4-4-4-0-0--0-0-2--4-4-4-0-0--0-0-2-2|
Ab|--4-4-4-0-0--0-0--2--4-4-4-0-0--0-0-2--4-4-4-0-0--0-0-2-2|
Db|--4-4-4-0-0--0-0--2--4-4-4-0-0--0-0-2--4-4-4-0-0--0-0-2-2|

Chorus
[ Tab from: http://www.guitaretab.com/c/course-of-nature/103611.html ]
All guitars strum in unison.

e|--0-0-0-0--0-0-0-0-2-2-2-2-0-0-0-0--|
B|--2-2-2-2--0-0-0-0-3-3-3-3-0-0-0-0--|
G|--2-2-2-2--1-1-1-1-2-2-2-2-1-1-1-1--|
D|--2-2-2-2--2-2-2-2-0-0-0-0-2-2-2-2--|
A|--0-0-0-0--0-0-0-0-0-0-0-0-2-2-2-2--|
E|------------------------------------|

Bridge

Acoustic Guitar

D, E
eb|--0-0-0-0-0-0-0-0--|
Bb|--3-3-3-3-0-0-0-0--|
Gb|--2-2-2-2-1-1-1-1--|  play 2x
Db|--0-0-0-0-2-2-2-2--|
Ab|--0-0-0-0-2-2-2-2--|
Eb|----------0-0-0-0--|

then,

F#m, E, D, E
eb|--2-2-2-2-0-0-0-0-0-0-0-0-0-0--|
Bb|--2-2-2-2-0-0-0-0-3-3-3-3-0-0--|
Gb|--2-2-2-2-1-1-1-1-2-2-2-2-1-1--|
Db|--4-4-4-4-2-2-2-2-0-0-0-0-2-2--|
Ab|--4-4-4-4-2-2-2-2-0-0-0-0-2-2--|
Eb|--2-2-2-2-0-0-0-0---------0-0--|


Electric Guitar

Solo

eb|------------------------------------------------------12~~~-|
Bb|-5s7-7s10s9-5s7-7s10s12-14s10-14s12-14s15-14-12-10s12-------|
Gb|------------------------------------------------------------|
Db|------------------------------------------------------------|
Ab|------------------------------------------------------------|
Db|------------------------------------------------------------|

Then play

eb|---------|
Bb|---------|
Gb|------2--|
Db|--6-7-0--|
Ab|--4-4-0--|
Db|--4-4-0--|

Chorus x4

Thats about it, what an incredible song!
Enjoy!
Related for Memory Of You tab
Memory Of You chords by Course Of Nature