Guitaretab - guitar tabs
Song name
# A B C D E F G H I J K L M N O P Q R S T U V W X Y Z

Course Of Nature - 1000 Times tab

Course Of Nature-1000 times
Tuning : Db,Ab,Db,Gb,Bb,Eb

Intro GT.1
---------------------------------------|
---------------------------------------|
---------------------------------------|
--6-6-6-6-6--9-9-9-11--14-14-14-14-14--|
--4-4-4-4-4--7-7-7--9--12-12-12-12-12--|
--4-4-4-4-4-----------12-12-12-12-12---|

Gt.2 with delay
----------------------------------|
----------------------------------|
----------------------9-9-99-9-9--|
------6--9--9br---7---7-7-77-7-7--|
----4---7--7-----0----0-0-00-0-0--|
---4------------------0-0-00-0-0--|

chorus

the strumming ain't hard to figure out
[ Tab from: http://www.guitaretab.com/c/course-of-nature/156962.html ]
-----------------|
-----------------|
-------4---7-----|
---2---4---7-----|
---2---2---5-----|
---2-------------|

Gt.1 during solo thing
-----------------------------------------------|
-----------------------------------------------|
-----------------------------------------------|
----2--4--2----2--4-2----0-2-0----0---2-0------|
-----------------------------------------------|
--2----------2---2-----0--------0---0----------|

gt2
------------------------------------------------------------|
--15br(17)---17r(15)--15br(17)--17r(15)--20br(22)--22r(20)--|
------------------------------------------------------------|
------------------------------------------------------------|
------------------------------------------------------------|
------------------------------------------------------------|
Related for 1000 Times tab