Song name
# A B C D E F G H I J K L M N O P Q R S T U V W X Y Z

Courtney Love - Mono tab

Mono - Courtney Love

e|-----------------------------|
b|-----------------------------|
g|--9---------12--9------------|
d|--9--9--12--12--9--9--12--5--|
a|--7--9--12--10--7--9--12--5--|
E|-----7--10---------7--10--3--|

e|-------------------------------------|
b|-------------------------------------|
g|-------------------------------------|
d|-------------------------------------|
a|-----5--7-----5--7----5--7-----5--7--|
E|--3--------5--------3-------5--------|

e|--------------|
b|--------------|
g|-----2--5--7--|
d|--2--2--5--7--|
a|--2--0--3--5--|
E|--0-----------|

e|--14------14------17----------|
b|------15------15------15------|
g|--------------------------14--|
d|------------------------------|
a|------------------------------|
E|------------------------------|



Tap to rate this tab
 
# A B C D E F G H I J K L M N O P Q R S T U V W X Y Z