Song name
# A B C D E F G H I J K L M N O P Q R S T U V W X Y Z

Courtney Marie Andrews - Pioneer Boys tab

Tabbed by: Sarah
Email: sarahgormley82@hotmail.com
Capo: 5th
Tuning: Standard


  Verse
e|--------------------------------------------------------------------------|
B|----0----0----0----0----0----0----0----0----------------------------------|
G|--0----0----0----0----0----0----0----0------------------------------------|
D|-5-5--5-5--4-4--4-4--2-2--2-2--0-0--0-0-----------------------------------|
A|--------------------------------------------------------------------------|
E|--------------------------------------------------------------------------|

e|-----------------------------------------|--------------------------------|
B|----0----0----0----0----0----0-----------|--------------------------------|
G|---5----5----5----5----0----0---------0--|-x5----------0---------0--------|
D|--0----0----0----0----0----0-------0h2---|---------0h2---0---0h2----2-----|
A|-3----3----2----2----0----0-----2h3------|------2h3-----3-2h3------3------|
E|-----------------------------------------|--------------------------------|

  Chorus
e|--------------------------------------------------------------------------|
B|----1----0----3----3----8----8----3----3----8----8----3----3--------------|
G|---0----0----4----4----9----9----4----4----9----9----4----4---------------|
D|--2----2----4----4----9----9----4----4----9----9----4----4----------------|
A|-3----3----2----2----7----7----2----2----7----7----2----2-----------------|
E|--------------------------------------------------------------------------|
                 
e|--------------------------------------------------------------------------|
B|-0h1---1----1----1----1----1----1----1----1-------------------------------|
G|------0----0----0----0----2----2----2----2--------------------------------|
D|-----2----2----2----2----2----2----2----2---------------------------------|
A|-0h3-----3----3----3----0----0----0----0----------------------------------|
E|--------------------------------------------------------------------------|

e|--------------------------------------------------------------------------|
B|----1----1----1----1----1----1----1----1----------------------------------|
G|---0----0----2----2----2----2----2----2-----------------------------------|
D|--2----2----0----0----2----2----2----2------------------------------------|
A|-3----3----3----3----0----0----0----0----3--------------------------------|
E|--------------------------------------------------------------------------|

e|--------------------------------------------------------------------------|
B|-----12----12----10----10----8----8----7----7----5----5----3----3---------|
G|----0-----0-----0-----0-----0----0----0----0----0----0----0----0----------|
D|---0-----0-----0-----0-----0----0----0----0----0----0----0----0-----------|
A|-10----10-----9-----9-----7----7----5----5----3----3----2----2------------|
E|--------------------------------------------------------------------------|

e|--------------------|-----------------------------------------------------|
B|----2----2h3---2----|-----------------------------------------------------|
G|---0----0----0---0--|--x2-------------------------------------------------|
D|--0----0------0-----|-----------------------------------------------------|
A|-2----0-------------|-----------------------------------------------------|
E|--------------------|-----------------------------------------------------|
   back to verse...




| /  slide up
| \  slide down
| h  hammer-on
| p  pull-off
| ~  vibrato
| +  harmonic
| x  Mute note
=============================================================================
Tap to rate this tab
# A B C D E F G H I J K L M N O P Q R S T U V W X Y Z