Song name
# A B C D E F G H I J K L M N O P Q R S T U V W X Y Z

Covenant - Happy Man tab

Covenant - Happy Man
Chords: F  C  Dm  Am (the whole song)

F  C                 Dm    Am
 I     don't love anyone
   F   C              Dm   Am
No I     just want my fun
      F         C            Dm        Am    
I'm a happy man - yes, I'm a happy man
      F         C            Dm        Am    
I'm a happy man - yes, I'm a happy man
....

Guitar I: 

e| 5-----------3--- | ---------------- | ---------------- | ------------3-5- ||
B| --------------6- | 5-----------3-5- | 6-----------3--- | ---------------- || 
G| ---------------- | ---------------- | --------------5- | ---------------- ||
D| ---------------- | ---------------- | ---------------- | ---------------- ||
A| ---------------- | ---------------- | ---------------- | ---------------- ||
E| -----------------| -----------------| -----------------| ---------------- ||

Guitar II: 
e| -------1-------1 | -------0-------0 | ---------------- | ----0--5----0--5 ||
B| ----1-------1--- | ----1-------1--- | -------3-------3 | ---------------- || 
G| ------2-------2- | ------2-------2- | ----2-------2--- | --2---2---2---2- ||
D| --3-------3----- | ---------------- | --0---3---0---3- | ---------------- ||
A| ---------------- | --3-------3----- | ---------------- | ---------------- ||
E| ---------------- | -----------------| -----------------| ---------------- ||

Bass (to give the beat):
G| ---------------- | ---------------- | ---------------- | 2-------2------- ||
D| 3-------3------- | ---------------- | 0-------0------- | ---------------- ||
A| ---------------- | 3-------3------- | ---------------- | ---------------- ||
E| ---------------- | -----------------| -----------------| ---------------- ||
Tap to rate this tab
# A B C D E F G H I J K L M N O P Q R S T U V W X Y Z