Song name
# A B C D E F G H I J K L M N O P Q R S T U V W X Y Z

Covenant - The Chasm tab

-------------------------------------------------------------------------------
			     The Chasm - The Covenant
-------------------------------------------------------------------------------
Tabbed by:Derz
Email:phillip55@web.de

Tuning:Standard

Intro,Outro and 2. Guitar for Riff1:x1 

e|---------------------------------------------------------------------------|
B|--5--5--8-7-x2--12-8-7-----------------------------------------------------|
G|----4----------------------------------------------------------------------|
D|---------------------------------------------------------------------------|
A|---------------------------------------------------------------------------|
E|---------------------------------------------------------------------------|

Riff1:x4 

e|---------------------------------------------------------------------------|
B|---------------------------------------------------------------------------|
G|------4----------5---------------------------------------------------------|
D|---2-5-5-4-2---2--2--1-5-4-------------------------------------------------|
A|--2----------3------2------------------------------------------------------|
E|-0-------------------------------------------------------------------------|

Riff2:x5

e|---------------------------------------------------------------------------|
B|---------------------------------------------------------------------------|
G|---------------------------------------------------------------------------|
D|--22222222-5555--------22222222-5555---------------------------------------|
A|--22222222-3333-9-10---22222222-3333-10-9----------------------------------|
E|--00000000-------------00000000--------------------------------------------|

Riff1:x4
Riff2:x5

Riff3:x1
e|---------------------------------------------------------------------------|
B|---------------------------------------------------------------------------|
G|---------------------------------------------------------------------------|
D|-3-3-2-2-3-3-2-------------------------------------------------------------|
A|-3-3-2-2-3-3-2-------------------------------------------------------------|
E|---------------------------------------------------------------------------|

Riff4:x10

e|---------------------------------------------------------------------------|
B|---------------------------------------------------------------------------|
G|---------------------------------------------------------------------------|
D|---------------------------------------------------------------------------|
A|-3-333333333333-3-2-222222222222-2-----------------------------------------|
E|-1-111111111111-1-0-000000000000-0-----------------------------------------|


Riff3:x1
e|---------------------------------------------------------------------------|
B|---------------------------------------------------------------------------|
G|---------------------------------------------------------------------------|
D|-3-3-2-2-3-3-2-------------------------------------------------------------|
A|-3-3-2-2-3-3-2-------------------------------------------------------------|
E|---------------------------------------------------------------------------|

Riff2:x5
Riff1:x4
Outro:x1

Thats it!

| /  slide up
| \  slide down
| h  hammer-on
| p  pull-off
| ~  vibrato
| +  harmonic
| x  Mute note
=====================================================================
Tap to rate this tab
 
# A B C D E F G H I J K L M N O P Q R S T U V W X Y Z