Coverdale Page - Shake My Tree tab

This Tablature represents the authors interpretation of the song:
Tabbed by Zepfan218

I have seen other tabs on here that have multiple errors. I feel I corrected a lot of 
them and this being a much more accurate tab with more of the song.
                                          Shake My Tree
                                          Coverdale/Page

This song is basically built on these three riffs. Listen to the song to get the 
repeated riff order.


Riff 1:
-----------------------------------------------------------------------------|
-5p0-0-3p0-0-5p0-0-3p0-0------5p0-0-3p0-0-5p0-0-3p0-0-------------3---3---0--|
-------------------------2p1--------------------------2p1---1-2s4---4---4----|
--------------------------------------------------------2--------------------|
-----------------------------------------------------------------------------|
-----------------------------------------------------------------------------|

---------------------|
---------3---3---0---|
---1-2s4---4---4-----|
-2-------------------|
---------------------|
---------------------|


Riff 2:
----------------------------------------------------------------------------|
-5--3--5~~3-------5--3--5~~3-------5--3--5~~3-------5--3--5~~---------------|
-------------2-1--------------2-1--------------2-1--------------------------|
----------------------------------------------------------------------------|
----------------------------------------------------------------------------|
----------------------------------------------------------------------------|


Interlude to riff 3:
--------------------|
--------------------|
--------------------|
--------------------|
-2--0---------------|
-------3--2--0------|

Riff 3:

           E5                     A5    G
----------------------------------------------------------------------------|
----------------------------------------------------------------------------|
---------------------------------2-2-2--------------------------------------|
-2--2--2---2-2-2-2-2---2--2--2---2-2-2--------------------------------------|
-2--2--2---2-2-2-2-2---2--2--2---0-0-0--2-----------------------------------|
-0--0--0---0-0-0-0-0---0--0--0----------3-----------------------------------|
Tap to rate this tab
 
# A B C D E F G H I J K L M N O P Q R S T U V W X Y Z