Song name
# A B C D E F G H I J K L M N O P Q R S T U V W X Y Z

Coverdale Page - Feeling Hot tab

#----------------------------------PLEASE NOTE---------------------------------#
#This file is the author's own work and represents their interpretation of the #
#song. You may only use this file for private study, scholarship, or research. #
#------------------------------------------------------------------------------##
~From: Charles Eric Horowitz 

Heres what I can make out of Feeling Hot.

Tuning:
1-e
2-b
3-g
4-d
5-a
6-d

Intro:

e-------------------------------------------------------------------------|
b-------------------------------------------------------------------------|
g--4-4-2-4-2--4-2-4-2-4/-----4-4-2-4-2--4-2-4-2\--------------------------|
d-------------------------------------------------------------------------|
a-------------------------------------------------------------------------|
d-------------------------------------------------------------------------|

Riff1:

e-------------------------------2------------------------------------------|
b-------------------------------2------------------------3-3---------------|
g-------------------------------3------------------------2-2---2-2---------|
d-------------------------------4------------------------0-0---2-2---------|
a---4-4-2--4-4-2--4-4-2--4-4-2----4-2--------------------------0-0---------|
d---4-4-2--4-4-2--4-4-2--4-4-2----4-2--------------------------------------|

Vocals:
e-------------------------------------------------------------------------------|
b-----------------------------------------------------------------------3-3-----|
g--4-2--4-2--4-2--4-2--4-2--4-2--4-2--4-2--4-2--4-2--4-2--4-2--4-2--4-2-2-2-2-2-|
d--4-2--4-2--4-2--4-2--4-2--4-2--4-2--4-2--4-2--4-2--4-2--4-2--4-2--4-2-0-0-2-2-|
a---------------------------------------------------------------------------0-0-|
d-------------------------------------------------------------------------------|

Chorus:
e--------------------------------------------------------------------------|
b--------------------------------------------------------------------------|
g--2-2-------------4-4-2-4-2-4-2-4^6---------------------------------------|
d--2-2-2-2-----------------------------------4--------4---0-2--------------|
a--0-0-2-2--4---------------------------4----4--0-2-4---------0-2--4-------|
d------2-2--4---------------------------4----4---------------------4-------|

Heres the two end riffs played 4X each in between main riffs

e--------------------------------------------------------------------------------------------|
b--------------------------------------------------------------------------------------------|
g-----------2-------2------------------------------------------------------------------------|
d-2---------2-------2-----------------2-2-2--------------------------------------------------|
a-0--2-3-4--0-2-3-4-0----------4^6p0--0-0-0--------------------------------------------------|
d--------------------------------------------------------------------------------------------|

As for the solo, just play real fast around the VII pos. and youll be fine.
Tap to rate this tab
 
# A B C D E F G H I J K L M N O P Q R S T U V W X Y Z