Song name
# A B C D E F G H I J K L M N O P Q R S T U V W X Y Z

Cowsponge - Latino Ice Cream Man tab

Latino Ice Cream Man- Cowsponge
Cowsponge has 4 members and are
cowsponge is a band that is very good and well known


TABBED BY APEdrapePOWA(aka CJ)
------------------------------------------------------------------------------------------------------------|
-----2-2-2-2-2-2-2-2-2------------3-3-3-3-3-3-3-3-3-----------2-2-2-2-2-2-2-2-2----------2-2-2-2-2-2-2-2-2--|
-----2-2-2-2-2-2-2-2-2------------3-3-3-3-3-3-3-3-3-----------2-2-2-2-2-2-2-2-2----------2-2-2-2-2-2-2-2-2--|
-----2-2-2-2-2-2-2-2-2------------3-3-3-3-3-3-3-3-3-----------2-2-2-2-2-2-2-2-2----------2-2-2-2-2-2-2-2-2--|
-2---------------------2-----2--3-------------------2--5--3-2-------------------2---2--3--------------------|
-0---------------------0-----0--1-------------------0--3--1-0-------------------0---0--1--------------------|


-------------------------------------------|
-------------------------------------------|
-------------------------------------------|         Repeat
-------------------------------------------|        throughout
2-2-2-2-2-2-2-2--3-3-3-3--33-5-3-----------|         whole
0-0-0-0-0-0-0-0--1-1-1-1--11-3-1-----------|          song


0-0-0-0-0-0-0-0--1-1-1-1-1--1-1-3-1-0-|
--------------------------------------|
--------------------------------------|
--------------------------------------|
--------------------------------------|
--------------------------------------|
Tap to rate this tab
 
# A B C D E F G H I J K L M N O P Q R S T U V W X Y Z