Song name
# A B C D E F G H I J K L M N O P Q R S T U V W X Y Z

Cowsponge - Aqua Man tab

Aquaman- Cowsponge
History of the sponge, good band, good material
TABBED BY APEDRAPEPOWA (aka CJ)


Intro

-5-5-5-5-5--7-7-7-7-7--5-5-5-5-5--7-7-7-7-7--5-5-5-5-5--7-7-7-7--5-5-5-5-5--7-7-7---|
-5-5-5-5-5--7-7-7-7-7--5-5-5-5-5--7-7-7-7-7--5-5-5-5-5--7-7-7-7--5-5-5-5-5--7-7-7---|
------------------------------------------------------------------------------------|
------------------------------------------------------------------------------------|
------------------------------------------------------------------------------------|
------------------------------------------------------------------------------------|

Verse 1

I go for a swim in the ocean you know...
------------------------------------------------------------------------------------|
------------------------------------------------------------------------------------|
------------------------------------------------------------------------------------|
-2-2-2-2-2--4-4-4-4-4--2-2-2-2-2--4-4-4-4-4--2-2-2-2-2--4-4-4-4-4--2-2-2-2-2--4-4-4-|
-0-0-0-0-0--2-2-2-2-2--0-0-0-0-0--2-2-2-2-2--0-0-0-0-0--2-2-2-2-2--0-0-0-0-0--2-2-2-|
------------------------------------------------------------------------------------|

Verse 2
He's aqua man, and hes under the sea...
---------------------------------------------------|
---------------------------------------------------|
---------------------------------------------------|
2-2-2-2-2-2-2-2--7-5-7-5--2-2-2-2-2-2-2-2--7-5-7-5-|
0-0-0-0-0-0-0-0--5-3-5-3--0-0-0-0-0-0-0-0--5-3-5-3-|
---------------------------------------------------|
Tap to rate this tab
# A B C D E F G H I J K L M N O P Q R S T U V W X Y Z