Song name
# A B C D E F G H I J K L M N O P Q R S T U V W X Y Z

Cpm 22 - Nao Va Embora tab

No v embora
CPM 22


(G# B F# E G# B) 2x

e|----------------------------------------------------------------------------------------------------|
B|----------------------------------------------------------------------------------------------------| 
G|----------------------------------------------------------------------------------------------------| 
D|-8----------8----------8----------8----------8/9----------8/9---------------------------------------|   2x
A|---7--10--7---7--10--7---7--10--7---7--10--7-----7--10--7-----7--10--7----10/12--10--13--13--13/12--| 
D|----------------------------------------------------------------------------------------------------|


G# B F# 
     S mais uma vez

G# B F#
     de novo talvez

G# B F#               G#       B     F#         B
     te ver acordar nem que seja pela ultima vez

                            G#               B
     tantas coisas que eu quero falar pra voc
     mas jamais consegui, por qu?
 
     REFRO
 
     G#     B     B
     No v embora (fique por favor)
     G#     B    B
     no v agora, esquea o que ficou
      G#     B                           G# B B
     pra trs h horas, quem nunca te amou

  (G# B F# E G# B) 2x

  e|----------------------------------------------------------------------------------------------------| 
  B|----------------------------------------------------------------------------------------------------| 
  G|-3----------3----------3----------3-----------3-----------3-----------------------------------------|   2x
  D|---1--4--1----1--4--1-----1--4--1----1--4--1-----1--4--1-----1--4--1-----4/6--4---------6~-6~-6~--4-| 
  A|----------------------------------------------------------------------------------------------------| 
  D|----------------------------------------------------------------------------------------------------|

G# B F#
     seu telefone tocou
G# B F#
     procura algum
G# B F#                   
     com quem possa falar
G# B F#
     nem que seja pela ultima vez

                             G#               B
     tantas coisas que eu quero falar pra voc
     mas jamais consegui, por qu?

     REFRO
 
     G#     B     B
     No v embora (fique por favor)
     G#     B    B
     no v agora, esquea o que ficou
     G#     B                           G# B B
     pra trs h horas, quem nunca te amou

  (G# B B) 4x

  e|--11--11--11--11--11--11--9--| 
  B|-----------------------------| 
  G|-----------------------------|   3x
  D|-----------------------------| 
  A|-----------------------------| 
  D|-----------------------------|
Tap to rate this tab
# A B C D E F G H I J K L M N O P Q R S T U V W X Y Z