Song name
# A B C D E F G H I J K L M N O P Q R S T U V W X Y Z

Cracker - Lets Go For A Ride tab

Cracker
Lets Go for a Ride
Tabbed by Jesse Modzelewski

Main Riff:

e|----------------------------------|
B|----------------------------------|
G|--4-4-4-4-4-4-4-4-4-4-4-4-4-4-4-4-|
D|--2-2-2-2-2-2-2-2-2-2-2-2-2-2-2-2-|
A|----------------------------------|
E|----------------------------------|

e|----------------------------------|
B|----------------------------------|
G|--4-4-4-4-4-4-4-4-4-4-4-4-4-4-4-4-|
D|--0-0-0-0-0-0-0-0-0-0-0-0-0-0-0-0-|
A|----------------------------------|
E|----------------------------------|


e|----------------------------------|
B|----------------------------------|
G|--4-4-4-4-4-4-4-4-4-4-4-4-4-4-4-4-|
D|--3-3-3-3-3-3-3-3-3-3-3-3-3-3-3-3-|
A|--5-5-5-5-5-5-5-5-5-5-5-5-5-5-5-5-|
E|----------------------------------|


e|----------------------------------|
B|----------------------------------|
G|--4-4-4-4-4-4-4-4-4-4-4-4-4-4-4-4-|
D|--2-2-2-2-2-2-2-2-2-2-2-2-2-2-2-2-|
A|----------------------------------|
E|----------------------------------|

Tap to rate this tab
# A B C D E F G H I J K L M N O P Q R S T U V W X Y Z