Song name
# A B C D E F G H I J K L M N O P Q R S T U V W X Y Z

Cracker - Get Off This tab

Chord progression is: C - Am - F - C


Intro
e||----------------------------------------||
B||----------------------------------------||
G||--------------------3----------3--------||
D||----------------3-6--------3-6----------||
A||-----4-6-6b-4-6-------6b-4-------6b-4---||
E||-4-6----------------------------------6-||


Verse:

C                                Am
All these cats with holey jeans, dirty hair and titty rings
F                                      C
Say, what your scene man? We got these questions
      C                                        Am
Is it true that you have sold your soul? Let's say, hey man, I don't know
          F                               C
Lend me a quarter won't you, I'll call my accountant

VERSE:
              C               Am
Let's get off this and get on with it
       F                                C
If you wanna change the world shut your mouth and start to spin it
        C               Am
Get off this and get on with it
       F                                C
If you wanna change the world shut your mouth and start this minute

SOLO:

   2 times
e||----------------------------8---------------8----------||
B||-----------------------8-11------------8-11------------||
G||---------8-10-10b-8-10--------10b-8-10--------10b-8----||
D||----8-10--------------------------------------------10-||
A||-10----------------------------------------------------||
E||-------------------------------------------------------||


VERSE:
C                       Am
Petty little Ayatollahs come around to judge and stone ya
F                         C
All we're trying to do is make a fortune
     C                       
Yeah we ain't got no government loans
    Am
And no one sends a check from home
        F                              C
And get this, we're just doin' what we wanna

CHORUS:
                 C               Am
So let's get off this and get on with it
       F                                C
If you wanna change the world shut your mouth and start to spin it
        C               Am
Get off this and get on with it
       F                                C
If you wanna change the world shut your mouth and start this minute

VERSE:

          C                              Am
Well, the guitar player's stayin' out in Hollywood and sayin'
          F                             C
He's just trying to get some sleep, but everyone's complain'
        C                            Am
Are you truly, deeply cynical 'cause boy you know that I loved you so
     F                                  C
When no one knew your name and you were pompous, still are

CHORUS:
              C               Am
Let's get off this and get on with it
       F                      C
If you wanna change the world shut your mouth and start to spin it
        C               Am
Get off this and get on with it
       F                                Am
If you wanna change the world shut your mouth, shut your mouth


And get off this and get on with it

If you wanna change the world shut your mouth and start to spin it

Get off this and get on with it

If you wanna change the world shut your mouth, shut your mouth y'all

OUTTRO:

Nah-nah-nah-na-nnah... Nah-nah-nah-na-nah-nah...

e||----------------------------8---------------8----------||
B||-----------------------8-11------------8-11------------||
G||---------8-10-10b-8-10--------10b-8-10--------10b-8----||
D||----8-10--------------------------------------------10-||
A||-10----------------------------------------------------||
E||-------------------------------------------------------||

  
e||----------------------------8---------------8-8v------||
B||-----------------------8-11------------8-11-----------||
G||---------8-10-10b-8-10--------10b-8-10-----------8----||
D||----8-10-------------------------------------------10-||
A||-10---------------------------------------------------||
E||------------------------------------------------------||

   
e||----------------------------8-----------------------------||
B||-----------------------8-11-------------------------------||
G||---------8-10-10b-8-10--------10b-8-10b-10br-8-10b-10b----||
D||----8-10-----------------------------------------------10-||
A||-10-------------------------------------------------------||
E||----------------------------------------------------------||

   
e||------------------------------------------------11b----8-||
B||-------------------------------------------8-11-----11---||
G||---------8-10-10b-8-10b-10b-10b-10br-8-10b---------------||
D||----8-10-------------------------------------------------||
A||-10------------------------------------------------------||
E||---------------------------------------------------------||





Just amalgamating the versions here, with the correct lyrics. 
Tap to rate this tab
# A B C D E F G H I J K L M N O P Q R S T U V W X Y Z