Song name
# A B C D E F G H I J K L M N O P Q R S T U V W X Y Z

Cradle Of Filth - Shat Out Of Hell tab

Cradle of Filth
Shat out of hell
Godspeed on the Devil's Thunder


use the comments option for corrections/suggestions thanks!

v1.0 October 2008



(00:00) Riff A 

d:-------------------------------------------------------------------|
A:-------------------------------------------------------------------|
F:o------------------------------------------------------------------|
C:o------------------------------------------------------------------|
G:------7-7-6-6-6-6-----6-6-7-7-9-9-9-7-9-9-10-10-10-9---------------|
D:---0--------------7-7--------------------------------10-10-7-7-----|


d:-------------------------------------------------------------------|
A:-------------------------------------------------------------------|
F:------------------------------------------------------------------o|
C:------------------------------------------------------------------o|
G:------7-7-6-6-6-6-----6-6-7-7-9-9-9-7-9-9-10-10-10-9-10-10-12-12---|
D:---0--------------7-7----------------------------------------------|



(00:18) Riff B

d:-------------------------------------------------------------------|
A:-------------------------------------------------------------------|
F:o------------------------------------------------------------------|
C:o--11-11-10s11-10--7--10-7--6-6-6-7s6-7-6--------11-11-10s11-10----|
G:---9--9--8-s9--8---5--8--5--4-4-4-5s4-5-4-6-5----9--9--8-s9--8-----|
D:------------------------------------------4-3----------------------|


d:-------------------------------------------------------------------|
A:-------------------------------------------------------------------|
F:------------------------------------------------------------------o|
C:--7--10-7--6-6-6-7s6----------------------------------------------o|
G:--5--8--5--4-4-4-5s4--5--8--5--8-----------------------------------|
D:-------------------------------------------------------------------|



(00:37) Riff C 

d:-------------------------------------------------------------------|
A:-------------------------------------------------------------------|
F:o-----------------------------------------------------------------o|
C:o------------------7--6s7-6------------------------7--6s7-6-7-9---o|
G:---4--3s4-3-4-6-4--5--4s5-4-6-4-7-4----3s4-3-4-6-4-5--4s5-4-5-7-6--|
D:---2--1s2-1-2-4-2-----------4-2-5-2----1s2-1-2-4-2--------------4--|



(00:55) Riff D

d:-------------------------------------------------------------------|
A:-------------------------------------------------------------------|
F:---4-4-4-4-4-4-4-4s5s4-2-2-2-2-2-2-2-2-4-2--------5-5-5-5----------|
C:-------------------------------------------3-3-3-3--------3-3-3-3--|
G:-------------------------------------------------------------------|
D:-------------------------------------------------------------------|


d:------------------------------------------|------------------------|
A:------------------------------------------|------------------------|
F:--5-5-5-5---------3-3-3-3-----0-0-3-3-----|--4-4-4-4-4-4-4-4s5s4---|
C:----------3-3-3-3---------3-3---------3-3-|------------------------|
G:------------------------------------------|------------------------|
D:------------------------------------------|------------------------|


d:-------------------------------------------------------------------|
A:-------------------------------------------------------------------|
F:--2-2-2-2-2-2-2-2s4s2-5-5-5-5-5-5-5-7p5-4-5-5-5-7-7-7-5-5-5-4-4-4--|
C:-------------------------------------------------------------------|
G:-------------------------------------------------------------------|
D:-------------------------------------------------------------------|


d:-------------------------------------------------------------------|
A:-------------------------------------------------------------------|
F:---4-4-4-4-4-4-4-4s5s4-2-2-2-2-2-2-2-2-4-2--------5-5-5-5----------|
C:-------------------------------------------3-3-3-3--------3-3-3-3--|
G:-------------------------------------------------------------------|
D:-------------------------------------------------------------------|


d:------------------------------------------|------------------------|
A:------------------------------------------|------------------------|
F:--5-5-5-5---------3-3-3-3-----0-0-3-3-----|--4-4-4-4-4-4-4-4s5s4---|
C:----------3-3-3-3---------3-3---------3-3-|------------------------|
G:------------------------------------------|------------------------|
D:------------------------------------------|------------------------|


d:-------------------------------------------------------------------|
A:---------------------------3-3-3-5-5-5-------3-3-3-6-6-6-5-5-5-----|
F:-2-2-2-2-2-2-2-2s4s2-4-4-4-------------5-5-5-------------------5-5-|
C:-------------------------------------------------------------------|
G:-------------------------------------------------------------------|
D:-------------------------------------------------------------------|



(02:45) Riff E

d:-------------------------------------------------------------------|
A:-------------------------------------------------------------------|
F:o-----------------------------------------------------------------o|
C:o-----------------------------------------------------------------o|
G:-------------8--------------8-6-8-------4-8-6----------------------|
D:---7-7-7-7-7-6--------7-7-7-6-4-6-3-3-3-2-6-4----------------------|



(03:03) Riff F

d:-------------------------------------------------------------------|
A:-------------------------------------------------------------------|
F:-------------------------------------------------------------------|
C:-------------------------------------------------------------------|
G:---4----------------4----------------4----------------4------------|
D:---2----3-3-3-3-3-3-2----3-3-3-3-3-3-2----3-3-3-3-3-3-2----3-3-3---|


d:-------------------------------------------------------------------|
A:-------------------------------------------------------------------|
F:----------------------------7--6--7--9-----------------------------|
C:-------------5----4----7----5--4--5--7-----------------------------|
G:--------4----3----2----5-------------------------------------------|
D:--3-3-3-2----------------------------------------------------------|



(04:35) Riff G

d:-------------------------------------------------------------------|
A:-------------------------------------------------------------------|
F:o------------------------------------------------------------------|
C:o-----7-7-6-6-6-6-----6-6-7-7-9-9-9-7-9-9-10-10-10-9---------------|
G:---0--------------7-7--------------------------------10-10-7-7-----|
D:-------------------------------------------------------------------|


d:-------------------------------------------------------------------|
A:------------------------------------------------------------------o|
F:------------------------------------------------------------------o|
C:------7-7-6-6-6-6-----6-6-7-7-9-9-9-7-9-9-10-10-10-9-10-10-12-12---|
G:---0--------------7-7----------------------------------------------|
D:-------------------------------------------------------------------|





Tap to rate this tab
# A B C D E F G H I J K L M N O P Q R S T U V W X Y Z