Song name
# A B C D E F G H I J K L M N O P Q R S T U V W X Y Z

Cradle Of Filth - The Death Of Love tab

Help us improve GuitareTab! Take a short survey!
Artist: Cradle of Filth
Song:   The Death of Love
Album:  Godspeed On The Devil's Thunder

Tuning: D,G,C,F,A,D

   Special thanks to n0ctis for the other tab.
 This tab is basically the same as the first tab, but this tab is in
D standard.
   THIS IS THE TUNING THAT CRADLE USE ON THIS SONG

GUITAR 1-PAUL ALLENDER
GUITAR 2-CHARLES HEDGER

   (CHARLES HEDGER PLAYS GUITAR 2 LIVE, ON THE ALBUM, PAUL PLAYS BOTH
 GUITARS.)


VERSE

Guitar One
D|-----------------------------------------------------------------|
A|-----------------------------------------------------------------|
F|-----------------------------------------------------------------|
C|-----------------------------------------------------------------|
G|-2---2---2---2---2---2---2---2---2---2---2---2---2---2---2---2---|
D|-0---0---0---0---0---0---0---0---0---0---0---0---0---0---0---0---|
   .   .   .   .   .   .   .   .   .   .   .   .   .   .   .   .
Guitar Two
|-----------------------------------------------------------------|
|-----------------------------------------------------------------|
|-----------------------------------------------------------------|
|--------5----4----2-------(2)----5-4-2-------2-------(2)---------|
|-2----------------------------------------5----------------------|
|-----------------------------------------------------------------|

Guitar One
|-----------------------------------------------------------------|
|-----------------------------------------------------------------|
|-----------------------------------------------------------------|
|-5---5---5---5---5---5---5---5---5---5---5---5---5---5---5---5---|
|-3---3---3---3---3---3---3---3---3---3---3---3---3---3---3---3---|
|-----------------------------------------------------------------|

Guitar Two
|-----------------------------------------------------------------|
|-----------------------------------------------------------------|
|-----------------------------------------------------------------|
|--------7----5----4-------(4)----7-5-4----2--4-------(4)---------|
|-3---------------------------------------------------------------|
|-----------------------------------------------------------------|

both guitars
|-------------------------------------------------|
|-------------------------------------------------|
|-------------------------------------------------|
|-5-4-2-4-2---------------5-4-2-4-2---------------|
|-----------5-3-5-3-2-3-2-----------5-3-5-3-2-3-3-|
|-------------------------------------------------|

Guitar One
|-----------------------------------------------------------------|
|-----------------------------------------------------------------|
|-----------------------------------------------------------------|
|-----------------------------------------------------------------|
|-2---2---2---2---2---2---2---2---2---2---2---2---2---2---2---2---|
|-0---0---0---0---0---0---0---0---0---0---0---0---0---0---0---0---|
  .   .   .   .   .   .   .   .   .   .   .   .   .   .   .   .

Guitar Two
|-----------------------------------------------------------------|
|-5------7----5----3--------------5----3----2----3-------2--3--2--|
|-----------------------------------------------------------------|
|-----------------------------------------------------------------|
|-----------------------------------------------------------------|
|-----------------------------------------------------------------|

Guitar One
|-----------------------------------------------------------------|
|-----------------------------------------------------------------|
|-----------------------------------------------------------------|
|-5---5---5---5---5---5---5---5---5---5---5---5---5---5---5---5---|
|-3---3---3---3---3---3---3---3---3---3---3---3---3---3---3---3---|
|-----------------------------------------------------------------|

Guitar Two
|-/3------5------5------7/8----8^7----7-------5--------3----------|
|-----------------------------------------------------------------|
|-----------------------------------------------------------------|
|-----------------------------------------------------------------|
|-----------------------------------------------------------------|
|-----------------------------------------------------------------|

-both guitars
|-------------------------------------------------|
|-------------------------------------------------|
|-------------------------------------------------|
|-5-4-2-4-2---------------5-4-2-4-2---------------|
|-----------5-3-5-3-2-3-2-----------5-3-5-3-2-3-3-|
|-------------------------------------------------|

CHORUS

both guitars
|------------------------------------------------------------------|
|------------------------------------------------------------------|
|------------------------------------------------------------------|
|----------------------------------------------------4/5-5\4-4-(4)-|
|-5--4--2--2------2--2--2--5--4--2--2------4--5--7---2/3-3\2-2-(2)-|
|-3--2--0--0------0--0--0--3--2--0--0------2--3--5---0/1-1\0-0-(0)-|

both guitars (continued)
|---------------|
|---------------|
|---------------|  Guitar One repeats two more times while
|-5/7-7\5-5\4---|  Guitar Two does the following:
|-3/5-5\3-3\2---|
|-3/5-5\3-3\2---|

Guitar Two
|-3--2--0--0------0--0--0--3--2--0--0------2--33/55/7^88^77(7)-

(continued)
|-8^10-10^8-8^7-|

INTERLUDE A

Guitar One
|--------------------------------------------------------------|
|--------------------------------------------------------------|
|--------------------------------------------------------------|
|--------------------------------------------------------------|
|-4---(4)--6-7-(7)-7-6-4-6-------------------------------------|
|--------------------------5-(5)-4^5^4-(4)-4^5^7-(7)-445-4-5-7-|

Guitar Two
|-0---(0)--2-0-(0)-4-2-0-2-0-(0)-2^0^2-(2)-4^2^4-(4)-245-4-2-4-|
|--------------------------------------------------------------|
|--------------------------------------------------------------|
|--------------------------------------------------------------|
|--------------------------------------------------------------|
|--------------------------------------------------------------|

INTERLUDE B

(break)

Guitar One
|--------------------------------------|
|---7-5-7-------------7-5-7-8--8^7^5-8-|
|-4-------4---------4------------------|
|--------------------------------------| 3x
|--------------------------------------|
|--------------------------------------|

Guitar Two
|---7-5-7-------------7-5-7-8--8^7^5-8-|
|-5-------5---------5------------------|
|--------------------------------------|
|--------------------------------------|
|--------------------------------------|
|--------------------------------------|

Guitar Two (continued)
|---7-5-7-------------7-5-7-8--8^7^5-8-|
|-4-------4---------4------------------|
|--------------------------------------|
|--------------------------------------|
|--------------------------------------|
|--------------------------------------|

Guitar Two (continued)
|---7-5-7-------------7-5-7-8--8^7^5-8-|
|-5-------5---------5------------------|
|--------------------------------------|
|--------------------------------------|
|--------------------------------------|
|--------------------------------------|

Guitar One (continued)
|---------------------------8-7-5-------------|
|---7-5-7-------------7-5-7--------8-7-5------|
|-4-------4---------4---------------------8-5-|
|---------------------------------------------|
|---------------------------------------------|
|---------------------------------------------|

Guitar Two (continued)
|---------------------------8-7-5-------------|
|-5-7-5-7-----------5-7-5-7--------8-7-5------|
|---------4-------------------------------8-5-|
|---------------------------------------------|
|---------------------------------------------|
|---------------------------------------------|

ORDER:
   Verse
   Chorus
   Verse
   (break)
   Chorus 2x
   Interlude A 2x
   (break)
   Interlude B
   Interlude A
   Verse
   Chorus


  AGAIN, SPECIAL THANKS TO n0ctis.
              HOPE THIS HELPS
Related for The Death Of Love tab