Song name
# A B C D E F G H I J K L M N O P Q R S T U V W X Y Z

Cradle Of Filth - Lovesick For Mina tab

-------------------------------------------------------------------------------
			     Lovesick For Mina - Cradle Of Filth
-------------------------------------------------------------------------------
Tabbed by:ffgdcpzae
Email:....gmail.com

Tuning:eBGDAE

  Guitar 1    
e|-------------------------------------------------------------------------|
B|--8-11-10h11p10-8-10-8---8-11-8---8-11-13p11-7---------------------------|
G|o----------------------7--------8---------------------------------------o|
D|o-----------------------------------------------------------------------o|
A|-------------------------------------------------------------------------|
E|-------------------------------------------------------------------------|
 |                                      
e|-------------------------------------------------------------------------|
B|--8-------8-8/13-11-10-11-8---8-11-11/16-11-7----------------------------|
G|o---7---7-------------------8-------------------------------------------o|
D|o-----8-----------------------------------------------------------------o|
A|-------------------------------------------------------------------------|
E|-------------------------------------------------------------------------|

  Guitar 2
e|-------------------------------------------------------------------------|
B|-------------------------------------------------------------------------|
G|o-----3---3-----------3---3---------------------------------------------o|
D|o---5---5---5---5---4---4---4---4---------------------------------------o|
A|--5-----------5---6-----------6------------------------------------------|
E|-------------------------------------------------------------------------|
 | 
e|-------------------------------------------------------------------------|
B|------------------------4-6p4--------------------------------------------|
G|o-3-0-----------0---0-3-------3-0---------------------------------------o| 
D|o-----0-------0---1---------------1-------------------------------------o|
A|--------1---1------------------------------------------------------------|
E|----------3--------------------------------------------------------------|




************************************

| /   slide up
| \   slide down
| h   hammer-on
| p   pull-off
| ~   vibrato
| +   harmonic
| x   Mute note
| b   Bend
| pb  Pre-bend
| br  Bend release
| pbr Pre-bend release
| brb Bend release bend

************************************
Tap to rate this tab
 
# A B C D E F G H I J K L M N O P Q R S T U V W X Y Z