Cradle Of Filth - Byronic Man tab

      2 TIMES                        -1st way-
--------------------/-------------------------------------------|
--------------------/-------------------------------------------|
--------------------/-------------------------------------------|
--------------------/-------2------2-5---------2-------2-4------|
---7---10-9--7-5----/---3~~----3~~---------2~~----2~~-----------|
--------------------/-------------------------------------------|

                         the patron saint of heartache



--------------------------------------/---/-----------------------|
--------------------------------------/---/-----------------------|
--------------------------------------/---/-----------------------|
--------------------------9-----------/---/-----------------------|
---7---10-9--7-5------7------10-9--7--/---/-----------------------|
--------------------------------------/---/-----------------------|

<>

It can be the 2nd guitar or choose one way the 1st or this


                        -2nd way-
-----------------------------------------------------/-------------|
-----------------------------------------------------/-------------|
-----------------------------------------------------/-------------|
-----------5--------5------------------4-------4-----/-------------|
----3-3---------3-3----3--------2-2--------2-2----2--/-------------|
-----------------------------------------------------/-------------|
can't see the world is fallin' the wolrd is fallin' down


end of solo
------------------------------/-------------------------------------|
------------------------------/-------------------------------------|
------------------------------/-------------------------------------|
------------------------------/-------------------------------------|
-----5-4-2-0------------------/-------------------------------------|
--------------5-4-2-0---------/-------------------------------------|

...............................*BY LoOS3R*..........................
Tap to rate this tab
 
# A B C D E F G H I J K L M N O P Q R S T U V W X Y Z