Song name
# A B C D E F G H I J K L M N O P Q R S T U V W X Y Z

Cradle Of Filth - Forgive Me Father I Have Sinned tab

Song: Forgive Me Father (I Have Sinned)
Artist: Cradle Of Filth
Album: Darkly, Darkly, Venus Aversa

TUNING: CGCFAD

INTRO X2
|-----------------------------------------14--------------------------------------|
|-15-12-0-12-0-0-12-0-17-12-0-12-0-0-12-0----12-0-12-0-0-12-0-15-12-0-12-0-0-12-0-|
|---------------------------------------------------------------------------------|
|---------------------------------------------------------------------------------|
|---------------------------------------------------------------------------------|
|---------------------------------------------------------------------------------|

CHORUS PART 1 X2
|-----------------------------------------14--------------------------------------|
|-15-12-0-12-0-0-12-0-17-12-0-12-0-0-12-0----12-0-12-0-0-12-0-15-12-0-12-0-0-12-0-|
|---------------------------------------------------------------------------------|
|---------------------------------------------------------------------------------|
|---------------------------------------------------------------------------------|
|---------------------------------------------------------------------------------|

CHORUS PART 2 X2
|-----------------------------------------14------------------14------------------|
|-15-12-0-12-0-0-12-0-17-12-0-12-0-0-12-0----12-0-12-0-0-12-0----12-0-12-0-0-12-0-|
|---------------------------------------------------------------------------------|
|---------------------------------------------------------------------------------|
|---------------------------------------------------------------------------------|
|---------------------------------------------------------------------------------|

VERSE PART 1 X4
|--------------------------------------------------------------------|
|--------------------------------------------------------------------|
|--------------------------------------------------------------------|
|-7-----7-----7---6-----6-----6-----4-----4-----4---9---10---9---7h9-|
|-7-----7-----7---6-----6-----6-----4-----4-----4-----0----0---0-----|
|-7-7-7-7-7-7-7-7-6-6-6-6-6-6-6-6-6-4-4-4-4-4-4-4-4------------------|
    . .   . .   .   . .   . .   . .   . .   . .   .   .    .   .


VERSE PART 2 X2
|-----------------------------------------------|
|-----------------------------------------------|
|-7-5-4-5---8-7-5-7---9-7-6-7---5---7---8---9---|
|---------5---------7---------9---5---7---8---9-|
|-----------------------------------------------|
|-----------------------------------------------|

CHORUS Pt 1 x2
CHORUS Pt 2 X2
VERSE X2
VERSE Pt 2 X1


BRIDGE (HEARD THROUGH LEFT EARPHONE)
|------------------------------------------------------|
|---9---9-----------9-10--9-10--9-10-13-13-14-14-16-13-|
|-6---6---6-4-6-4-6------------------------------------|
|------------------------------------------------------|
|------------------------------------------------------|
|------------------------------------------------------|

|-------------------------------------------------|
|-------------------------------------------------|
|-------------------------------------------------|
|---2---2---2-1---1---1-2-------------------------|
|-4---4---4-----2---2-----4-0-4-0-4-0-------------|
|-------------------------------------6-4-6-4-6-4-|

|------------------------------------------------------|
|---9---9-----------9-10--9-10--9-10-13-13-14-14-16-13-|
|-6---6---6-4-6-4-6------------------------------------|
|------------------------------------------------------|
|------------------------------------------------------|
|------------------------------------------------------|

|---------------------------------------------------------|
|---------------------------------------------------------|
|---------------------------------------------------------|
|-----------------2-2-2-2-----------------2-2-2-2---------|
|-4-4-4-4-4-4-4-4---------4-4-4-4-4-4-4-4---------4-4-4-4-|
|---------------------------------------------------------|


|-------------------------------------------------------------------------|
|-------------------------------------------------------------------------|
|-------------------------------------------------------------------------|
|-2-2-2-2-1-1-1-1-1-1-1-1---------1-1-1-1-1-1-1-1---------1-1-1-1-2-2-2-2-|
|-------------------------2-2-2-2-----------------2-2-2-2-----------------|
|-------------------------------------------------------------------------|

|-----------------------------------------------------------------|
|-----------------------------------------------------------------|
|-----------------------------------------------------------------|
|-----------------------------------------------------------------|
|-4-4-4-4-4-4-4-4-0-0-0-0-4-4-4-4-4-4-4-4-0-0-0-0-4-4-4-4-0-0-0-0-|
|-----------------------------------------------------------------|

|-----------------------------------------------------------------|
|-----------------------------------------------------------------|
|-----------------------------------------------------------------|
|-----------------------------------------------------------------|
|-----------------------------------------------------------------|
|-6-6-6-6-6-6-6-6-4-4-4-4-6-6-6-6-6-6-6-6-4-4-4-4-6-6-6-6-4-4-4-4-|

SOLO HASN'T BEEN ADDED

VERSE X2
CHORUS Pt 1 X2
CHORUS Pt 2 x2
CHORUS Pt 1 X2
CHORUS Pt 2 x2
CHORUS Pt 1 X2
CHORUS Pt 2 x2
CHORUS Pt 1 X2
CHORUS Pt 2 x2

PLAYED AT THE END
|----------|
|----------|
|-11-13-14-|
|----------|
|----------|
|----------|
Tap to rate this tab
 
# A B C D E F G H I J K L M N O P Q R S T U V W X Y Z