Song name
# A B C D E F G H I J K L M N O P Q R S T U V W X Y Z

Cradle Of Filth - Forgive Me Father I Have Sinned tab

-------------------------------------------------------------------------------
		 FORGIVE ME FATHER (I HAVE SINNED) - Cradle of Filth
-------------------------------------------------------------------------------
Tabbed by: Kiera
Email: evanescenceguitarist@yahoo.com

Tuning: Standard

Intro/Chorus

Guitar 1 x6
e|-8-0-0-5-0-0-5-0-10-0-0-5-0-0-5-0-12-0-0-5-0-0-5-0-8-0-0-5-0-0-5-0--|
B|--------------------------------------------------------------------|
G|--------------------------------------------------------------------|
D|--------------------------------------------------------------------|
A|--------------------------------------------------------------------|
E|--------------------------------------------------------------------|

Guitar 2
Comes in during second repeat of guitar 1's riff --> x4
e|------------------|-----------------------------------------------------|
B|------------------|-----------------------------------------------------|
G|------------------|-----------------------------------------------------|
D|------------------|-----------------------------------------------------|
A|-7--7--7--7--7--7-|-10-10-10--9--9--9--7--7--7--7--7--7-----------------|
E|-5--5--5--5--5--5-|--8--8--8--7--7--7--5--5--5--5--5--5-----------------|

Verse 
riff 1 x4
e|-----------------------------------------------------------------------|
B|-----------------------------------------------------------------------|
G|-------------------------------------------------7---8---7---5-7-------|
D|---------------------------------------------------0---0---0-----------|
A|-5-----5-----5---4-----4-----4---2-----2-----2-------------------------|
E|-3-3-3-3-3-3-3-3-2-2-2-2-2-2-2-2-0-0-0-0-0-0-0-0-----------------------|
PM   ___   ___   _   ___   ___   _   ___   ___   _

riff 2 x2
e|------------------------------------------------------------------------|
B|------------------------------------------------------------------------|
G|--------------------------------------------------5---7---8---9---------|
D|-8-7-5-7-5-------8-7-5-7---------8-7-5-7-5----------5---7---8---9-------|
A|-------------------------8----------------------------------------------|
E|------------------------------------------------------------------------|

Intro/Chorus x4
Verse riff 1 x2
Verse riff 2 x1

Bridge
riff 1 x1
e|------------------------------------------------------------------------|
B|---------------------------------------------------11--12--14--11-------|
G|------11----11---------------11-12----11-12--11-12----------------------|
D|-9-------9-----9-7----9-7--9--------------------------------------------|
A|------------------------------------------------------------------------|
E|------------------------------------------------------------------------|

riff 2 x2
e|-------------------------------------------------------------------------|
B|-------------------------------------------------------------------------|
G|-------------------------------------------------------------------------|
D|-------------------------------------------------------------------------|
A|-2----5-2--5-2-5-4----0-4--0-4-5-2------2----2---------------------------|
E|--------------------------------------3----3---3-2----0-2--0-2-0---------|

Bridge riff 1 x1

riff 3 (same as riff 2 only tremolo)

e|------------------------------------------------------------------------|
B|------------------------------------------------------------------------|
G|------------------------------------------------------------------------|
D|------------------------------------------------------------------------|
A|-2222222222222222225555552222222222225555222255554444444444444444000000-|
E|------------------------------------------------------------------------|

e|------------------------------------------------------------------------|
B|------------------------------------------------------------------------|
G|------------------------------------------------------------------------|
D|------------------------------------------------------------------------|
A|444444444444000044445555222222222222222222------222222222222----2222----|
E|------------------------------------------333333------------3333----3333|

e|--------------------------------------------------------|
B|--------------------------------------------------------|
G|--------------------------------------------------------|
D|--------------------------------------------------------|
A|--------------------------------------------------------|
E|-22222222222222222000000222222222222000022220000--------|

Verse riff 1 x2

Intro/Chorus x8
w/solo

Ending solo guitar
e|--------------------|
B|--------------------|
G|--------------------|
D|--------------------|
A|--14--16--17--------|
E|--------------------|

Thanks for looking at :)

************************************

| /   slide up
| \   slide down
| h   hammer-on
| p   pull-off
| ~   vibrato
| +   harmonic
| x   Mute note
| b   Bend
| pb  Pre-bend
| br  Bend release
| pbr Pre-bend release
| brb Bend release bend

************************************
Tap to rate this tab
 
# A B C D E F G H I J K L M N O P Q R S T U V W X Y Z