Guitaretab - guitar tabs
Song name
# A B C D E F G H I J K L M N O P Q R S T U V W X Y Z

Cradle Of Filth - Hurt & Virtue tab

 -Album: Damnation and A Day
 -Transcribed by: Walter Morales
 -E-mail: vega@net-4you.com
 -Tuning: Drop C -Low to High > (C F Bb Eb G C)
 -All strings down two steps

.  - palm mute            /  - slide up to
\  - slide down to        ~  - vibrato         
p  - pull off 
h  - hammer-on

This is one of the greatest songs that Cradle has so far made. By the way 
this is my first tab but itís 100% correct, if it is not then sue me. This song 
should take you about 8 hours.

Riff 1 
|------------------------------------------------------|
|------------------------------------------------------|
|------------------------------------------------------|X 2
|--------7--9-------7--9----------2-------5--7---------|
|-----7----------7----------3--5-------5---------------|
|--5----------5----------1----------3------------------|

Riff 2 (keyboards arranged for guitar)
|--------------------------------------------------|
|--13-10--13-10--13-10-13-10--13-10--13-10---------|
|-------9------9------------9------9---------------|
|--------------------------------------------------|
|--------------------------------------------------|
|--------------------------------------------------|
|
|--------------------------------------------------|
|--13-10--13-10--13---13-12--13-12--13-12----------|
|-------10-----10---10-----12-----12---------------|X 2
|--------------------------------------------------|
|--------------------------------------------------|
|--------------------------------------------------|

Riff 3
|----------------------------------------------------------------------|
|----------------------------------------------------5-------6---5-----|
|---------------5-4~-------------5-4~--5-4-5-7-5-4-5---5-4-5---5---5---|X 4
|-------------------------------------7--------------------------------|
|--0-0-0-0-0-0-------0-0-0-0-0-0---------------------------------------|
|----------------------------------------------------------------------|
   . . . . . .       . . . . . .      .. . . . . . .   . . . . .  . .                                             
Riff 4
|---------------------------------------------------|
|-7-----7-----7-----7---7-8--7---7-----7-----7-8----|
|-6-----6-----6-----6---6-7--6---6-----6-----6-7----|
|---------------------------------------------------|
|---------------------------------------------------|
|---8-8---8-8---8-8------------8-8---8-8---8-8---8--|
|
|------------------------------------------------|
|------------------------------------------------|
|--7-----7-----7-----7-8--7-----7-----7-----7-8--|X 2
|--7-----7-----7-----7-8--5-----7-----7-----7-8--|
|--5-0-0-5-0-0-5-0-0-5-6--5-0-0-5-0-0-5-0-0-5-6--|
|------------------------------------------------|

Riff 5
|-----------------------------------------------------------------|
|-----------------------------------------------------------------|
|-----------------------------------------------------------------|
|-----------------------------------------------------------------|
|-----------------------------------------------------------------|
|-0-0-0-0-0-0-0-0-0-0-0-0-0-0-0-0-0-0-0-0-0-0-0-0-0-0-0-0-0-0-0-0-|
| . . . . . . . . . . . . . . . . . . . . . . . . . . . . . . . .                                                     
|-----------------------------------------------------------------|
|-----------------------------------------------------------------|
|-----------------------------------------------------------------|X 2
|-----------------------------------------------------------------|
|-2-2-2-2-2-2-2-2-2-2-2-2-2-2-2-2---------------------------------|
|---------------------------------1-1-1-1-1-1-1-1-1-1-1-1-1-1-1-1-|
  . . . . . . . . . . . . . . . . . . . . . . . . . . . . . . . .

Riff 3
|----------------------------------------------------------------------|
|----------------------------------------------------5-------6---5-----|
|---------------5-4~-------------5-4~--5-4-5-7-5-4-5---5-4-5---5---5---|X 4
|-------------------------------------7--------------------------------|
|--0-0-0-0-0-0-------0-0-0-0-0-0---------------------------------------|
|----------------------------------------------------------------------|
   . . . . . .       . . . . . .      .. . . . . . .   . . . . .  . .    
|----------------------|----------------------|
|----------------------|----------------------|
|----------------------|----------------------|2 bars of silence                        |----------------------|----------------------|
|----------------------|----------------------|
|----------------------|----------------------|

Riff 4
|---------------------------------------------------|
|-7-----7-----7-----7---7-8--7---7-----7-----7-8----|
|-6-----6-----6-----6---6-7--6---6-----6-----6-7----|
|---------------------------------------------------|
|---------------------------------------------------|
|---8-8---8-8---8-8------------8-8---8-8---8-8---8--|
|
|------------------------------------------------|
|------------------------------------------------|
|--7-----7-----7-----7-8--7-----7-----7-----7-8--|
|--7-----7-----7-----7-8--5-----7-----7-----7-8--|
|--5-0-0-5-0-0-5-0-0-5-6--5-0-0-5-0-0-5-0-0-5-6--|
|------------------------------------------------|

Riff 5
|-----------------------------------------------------------------|
|-----------------------------------------------------------------|
|-----------------------------------------------------------------|
|-----------------------------------------------------------------|
|-----------------------------------------------------------------|
|-0-0-0-0-0-0-0-0-0-0-0-0-0-0-0-0-0-0-0-0-0-0-0-0-0-0-0-0-0-0-0-0-|
| . . . . . . . . . . . . . . . . . . . . . . . . . . . . . . . .                        |-----------------------------------------------------------------|
|-----------------------------------------------------------------|
|-----------------------------------------------------------------|X 2
|-----------------------------------------------------------------|
|-2-2-2-2-2-2-2-2-2-2-2-2-2-2-2-2---------------------------------|
|---------------------------------1-1-1-1-1-1-1-1-1-1-1-1-1-1-1-1-|
  . . . . . . . . . . . . . . . . . . . . . . . . . . . . . . . .

Riff 6
|----------------------------------------------------------|
|----------------------------------------------------------|
|-----4--4h-5-4-----2--1h-2--1-----------------------------|
|--2--2--2----2ó-2--2--2--2--2--------7------------3-------|
|--2--2--2----2--2--2--2--2--2-----5-----5-----3------3----|
|--0-------------0--------------3-----------1--------------|
|
|-----------------------------------------------------------|
|---------0-------------0-------------3------------1--------|
|---------1-------------1-------------4------------2--------|X2
|--2------2------2------2------5------5-----3------3--------|
|--2------2------2------2------5------5-----3------3--------|
|--0-------------0-------------3------------1---------------|

Riff 7
|---------------------------------------------------------|
|---------------------------------------------------------|
|-4--4--2-/5-4--4-4-4/5-5-5-5/7-7-7-7\5-5-5-5\4-2---------|X 4
|-4--4--2-/5-4--4-4-4/5-5-5-5/7-7-7-7\5-5-5-5\4-2---------|
|-2--2--0-/3-2--2-2-2/3-3-3-3/5-5-5-5\3-3-3-3\2-0---------|
|---------------------------------------------------------|

Interlude
|------------------------------------------------------------------------------|
|-----------------------8--------------------------------------10--8--7--8~----|
|-7--9--11~~--7--9--11----11-9h11p9h11p9--7--9--11~~-7--9--11------------------|
|------------------------------------------------------------------------------|
|------------------------------------------------------------------------------|
|------------------------------------------------------------------------------|
|
|----------------------------------------------------------------------|
|----------------------------------------------------------------------|
|--------------6~---------------7~----------------4~--------------9-7-9|
|--4-4-4-4-4-4----5-5-5-5-5-5-5---5---2-2-2-2-2-2---2-5-5-5-5-5-5------|
|----------------------------------------------------------------------|
|----------------------------------------------------------------------|
|
|----------------------------------------------------------------------|
|----------------------------------------------------------------------|
|----------------------------------4--6-7-6-7-9-11-9-------------------|X 2
|-77777777777777779999999999999999-4--6-7-6-7-9-11-9-------------------|
|-55555555555555557777777777777777-2--4-5-4-5-7-9--7-------------------|
|----------------------------------------------------------------------|

Interlude afterwards
|----------------------------------------------------------------------|
|----------------------------------------------------------------------|
|----------------------------------4--6-7-6-7-9-11-9-------------------|
|-77777777777777779999999999999999-4--6-7-6-7-9-11-9-------------------|
|-55555555555555557777777777777777-2--4-5-4-5-7-9--7-------------------|
|----------------------------------------------------------------------|

Riff 1 
|------------------------------------------------------|
|------------------------------------------------------|
|------------------------------------------------------|X 2
|--------7--9-------7--9----------2-------5--7---------|
|-----7----------7----------3--5-------5---------------|
|--5----------5----------1----------3------------------|

Riff 2 
|--------------------------------------------------|
|--13-10--13-10--13-10-13-10--13-10--13-10---------|
|-------9------9------------9------9---------------|
|--------------------------------------------------|
|--------------------------------------------------|
|--------------------------------------------------|
|
|--------------------------------------------------|
|--13-10--13-10--13---13-12--13-12--13-12----------|
|-------10-----10---10-----12-----12---------------|X 2
|--------------------------------------------------|
|--------------------------------------------------|
|--------------------------------------------------|

Riff 8
|------------------------------------------------------------------|
|------------------------------------------------------------------|
|------------------------------------------------------------------|X 2
|-7----------------------------3--------5--------2-----------------|
|-7------------7---------------3--------5--------2-----------------|
|-5------------4---------------1--------3--------0-----------------|

|----------------------------------------------------------------------|
|----------------------------------------------------------------------|
|----------------------------------------------------------------------| Towards the
|-------777999-------999101010-------222-------------------------------| end of the song.
|----777----------777-------------333---555555333222-------------------|
|-555----------444-------------111------------------333----------------|

[ Tab from: http://www.guitaretab.com/c/cradle-of-filth/26134.html ]
Related for Hurt & Virtue tab