Song name
# A B C D E F G H I J K L M N O P Q R S T U V W X Y Z

Cradle Of Filth - Forgive Me Father I Have Sinned tab

 forgive me father
1st solo dgcfad

------------------------------------------------------------|
-ph)()-*)---*)---*)---*)--*)----*)*)*)*)*)*)-)(-------------|
--5----5----5----5----5---5-----5-5-5-5-5-5--5--2--*--------|
--------------------------------------------------4~~~~-----|
------------------------------------------------------------|
------------------------------------------------------------|

-------------------------------------------------------------------------|
-------------------------------------------------------------------------|
-7-6--5-6--7-6--5-6--7-6--5-6--7-6--5-6--9-6--5-6--9-6-9-6--5-6--9-6-9-6-|
-------------------------------------------------------------------------|
-------------------------------------------------------------------------|
-------------------------------------------------------------------------|


---------------------------------------------------------------------|
---------------7--------7---------9---------9----7-9-10-9--7-9-10-9--|
-----------7-9---9--7-9---9--9-11---11-9-11---11---------------------|
---------------------------------------------------------------------|
---------------------------------------------------------------------|
---------------------------------------------------------------------|


----7--------7-------------------------------------------------------|
7-9---9--7-9---9-7-9--14-10----10-14-10-14-10----10-14-10-14-10------|
----------------------------12----------------12----------------12---|
---------------------------------------------------------------------|
---------------------------------------------------------------------|
---------------------------------------------------------------------|

-----------------------------------------------------------------------------|
9-12-9---9-12-9-12-9---9-12-9-12-9--7-9-10-9-7-9-10-9-10-9-7-9-10-9-10-9-7-9-|
-------11------------11------------------------------------------------------|
-----------------------------------------------------------------------------|
-----------------------------------------------------------------------------|
-----------------------------------------------------------------------------|


-7----------------7-------------------)(--------------------------|
---9-7-9-10-9-7-9---9-7-9-10-9-7-9--12---10-ph-~~~~---------------|
--------------------------------------------12--------------------|
------------------------------------------------------------------|
------------------------------------------------------------------|
------------------------------------------------------------------|



----------------------------------------------------------|
-9--10--12------------------------------------------------|
-----------9----12-11-9-11-12-11-9-11--13-11-9-13-11-9----|
----------------------------------------------------------|
----------------------------------------------------------|
----------------------------------------------------------|

------------------------------------------------------|
--------------------------------------ph~~------------|
9-13-14-13-11-14-13-11-13-16-14-12-14-15--------------|
------------------------------------------------------|
------------------------------------------------------|
------------------------------------------------------|
Tap to rate this tab
 
# A B C D E F G H I J K L M N O P Q R S T U V W X Y Z