Song name
# A B C D E F G H I J K L M N O P Q R S T U V W X Y Z

Cradle Of Filth - Forgive Me Father I Have Sinned tab

Dgcfad
Gt 1.RiffA 0:00-0:25,1:25-1:36,

-10-----7-----7---12-----7----7---14-----7-----7---10-----7-----7---------|
----0-0---0-0---0----0-0---0-0--0----0-0---0-0---0----0-0---0-0---0-------|
--------------------------------------------------------------------------|
--------------------------------------------------------------------------|
--------------------------------------------------------------------------|
--------------------------------------------------------------------------|

Gt.1 Riff B 0:25-0:36,1:36-1:48

10\7---7-----7/12-12\7---7-----7/14-14\7---7-----7/14-14\7--7----7/10-|
-----0---0-0-----------0---0-0-----------0---0-0-----------0--0-0-----|
----------------------------------------------------------------------|
----------------------------------------------------------------------|
----------------------------------------------------------------------|
----------------------------------------------------------------------|

Gt 1 Riff C 0:36-1:00,1:48-2:00,3:13-3:25---------------------------|
-------------------------------------* let all notes ring ----------|
--------------------------------------------------------------------|
--9-----9-----9---6-----6-----6---11----11--11----*9---10---9---7^9-|
--7-----7-----7---4-----4-----4---9-----9---9--------7----7---7-----|
--------------------------------------------------------------------|
----0-0---0-0---0---0-0---0-0---0---0-0--------0--------------------|

Gt.1 Riff D 1:00-1:25,2:01-2:12
---------------]---------------]--------------]------------------------------|
---------------]---------------]--------------]------------------------------|
-5-------------]-5-------------]-5------------]--------7---9----10-----------|
----9--7--9--7*]---9--7--9--5*-]---9--7--9--7*]-10--7----9---10----12--------|
---------------]---------------]--------------]------------------------------|
---------------]---------------]--------------]------------------------------|

Gt.1 Riff E 2:13-2:25,2:48-3:00

-----------------------------------------------------------------------------|
------7------7--------------7--9---------------------------------------------|
--9------9-----9--8---9--8--------6----8---6-----9--8---5\[6]-6\[8]-8\[9]-9--|
-----------------------------------------------------------------------------|
-----------------------------------------------------------------------------|
-----------------------------------------------------------------------------|

Both gtrs 2:25-2:48.2nd time 3:00-3:12 [all tremelo picked]
------------------------------------------------------------------------|
------------------------------------------------------------------------|
------------------------------------------------------------------------|
------------------------------------------------------------------------|
-4---7--4----7--4--7--6----6----6--7--4---4---4-------------------------|
-------------------------7---7----------5---5---5--4--2---4--2---0--2---|
]]]]]]]]]]]]]]]]]]]]]]]]]]]]]]]]]]]]]]]]]]]]]]]]]]]]]]]]]]]]]]]]]]]]]]]]]]]]

Gt2 0:10-0:36,1:25-1:49,3:25----------------------------------------------|end
------------]----------------------------------------------]---end--------|
-begining---]----------------------------------------------]--------------|
------------]----------------------------------------------]--11--13--14--|
4-4-4--4-4-4]--5---5--5---4---4--4---4--4--4---4--4--4-----]--------------|
2-2-2--2-2-2]--5---5--5---4---4--4---2--2--2---2--2--2-----]--------------|
------------]----------------------------------------------]--------------|

Gt2Riff C 0:36-1:00,1:48-2:00,3:13-3:2
--------------------------------------------------------------------------| let all notes ring
--------------------------------------------------------------------------|
--9-----9-----9---8-----8-----8---6-----6---6-------*9---10---9---7^9-----|
--7-----7-----7---6-----6-----6---4-----4---4----------7----7---7---------|
--------------------------------------------------------------------------|
----0-0---0-0---0---0-0---0-0---0---0-0--0-0----0-------------------------|

Gt2Riff D 1:00-1:25,2:01-2:12
-----------------------------------------------------------------------------|
-----------------------------------------------------------------------------|
-----------------------------------------------------------------------------|
-7------------7------------------5-------------------------------------------|
-7---3---5----7----3---2----3----5----3----2--3--2---5--5-5--3--3-3----------|
-----------------------------------------------------3--3-3--1--1-1----------|

Gt2.Riff E 2:13-2:25,2:48-3:00
-----------------------------------------------------------------------------|
-----------------------------------------------13\[14]14\[16]16\[13]13-------|
----14--------14--------------13-14-13-14-13-14------------------------------|
11------11-------11--9-11-9-9------------------------------------------------|
-----------------------------------------------------------------------------|
-----------------------------------------------------------------------------|
Tap to rate this tab
 
# A B C D E F G H I J K L M N O P Q R S T U V W X Y Z