Guitaretab - guitar tabs
Song name
# A B C D E F G H I J K L M N O P Q R S T U V W X Y Z

Cradle Of Filth - Saffrons Curse tab

.  - palm mute           /  - slide up to
\  - slide down to       ~  - vibrato
h  - hammer on           b  - Bend
p  - pull off            Suffixes for bend
t  - tap                 f  - full bend    h - half bend
ph - pinched harmonic    q  - quarter bend t - tap bend
*  - see comment         ^  - Hold bend    r release bend
x  - Stuccatto           ~  - vibrato bend
,  - slight palm mute    () - ghost note, sustained note
"  - tremolo note        <> - Trill

Riff 1
-------------------------------------------------------------------|
-------------------------------------------------------------------|
-------------------------------------------------------------------|
---5-5-5-5-5-5-5-5-4-4-4-4-4-4-4-4-7-7-7-7-7-7-7-7-5-5-5-5-5-5-5-5-|
-------------------------------------------------------------------|
-------------------------------------------------------------------|

------------------------------------------------------------|
------------------------------------------------------------|
------------------------------------------------------------|
--8---------8---------8-----5-5-5-5-7-7-7-7-5-5-5-5-4-4-4-4-|
--6-6-6-6-6-6-6-6-6-6-6-6-6---------------------------------|
------------------------------------------------------------|

 Riff 2
-----------------------------------------------------------------------|
-----------------------------------------------------------------------|
-----------------------------------------------------------------------|
-----------------------------------------------------------------------|
--10-10-10-10-10-10-10-10-10-10-10-10-10-10-10-10-10-10-10-10-10-10-10-|
--8--8--8--8--8--8--8--8--8--8--8--8--8--8--8--8--8--8--8--8--8--8--8--|

-------------------------------------------------------------------|
-------------------------------------------------------------------|
-------------------------------------------------------------------|
----------------------------------5-5-5-5-7-7-7-7-5-5-5-5-4-4-4-4--|
--9-9-9-9-9-9-9-9-9-9-9-9-9-9-9-9----------------------------------|
--7-7-7-7-7-7-7-7-7-7-7-7-7-7-7-7----------------------------------|


  Riff 3
---------------------------------------------------------|
---------------------------------------------------------|
---------------------------------------------------------|
---7/9-7/9-------------5-5-5-5-5-5-5-5-9-9-9-9-10-10-9-9-|
---5/7-5/7-------------7-7-7-7-7-7-7-7-7-7-7-7-7--7--7-7-|
-----------0-0-0-0-0-0-----------------------------------|

------------------------------------------------------|
------------------------------------------------------|
------------------------------------------------------|
--7/9-7/9-------------2-2-2-2-5-5-5-5-3-3-3-3-5-5-5-5-|
--5/7-5/7-------------5-5-5-5-5-5-5-5-5-5-5-5-5-5-5-5-|
---------0-0-0-0-0-0----------------------------------|
Riff 4
---------------------------------------------------------------------|
---------------------------------------------------------------------|
---------------------------------------------------------------------|
---------------------------------------------------------------------|
--10------9-10-9----7--9----10------9-10-9----7--9----10------9-10---|
---------------------------------------------------------------------|

---------------------------|I
---------------------------|I
---------------------------|I
---------------------------|I
--7--9----7----6----7----9-|I
---------------------------|I

[ Tab from: http://www.guitaretab.com/c/cradle-of-filth/30554.html ]
Riff 5
------------------------------------------------------------------|
------------------------------------------------------------------|
------------------------------------------------------------------|
------------------------------------------------------------------|
------------------------------------------------------------------|
--3-3-3-3-3-3-3-3-3-3-3-3-2-2-3-3-2-2-2-2-2-2-2-2-0-0-0-0-2-2-2-2-|

------------------------------------------------------------------|
------------------------------------------------------------------|
------------------------------------------------------------------|
------------------------------------------------------------------|
------------------------------------------------------------------|
--3-3-3-3-3-3-3-3-3-3-3-3-2-2-3-3-2-2-2-2-2-2-2-2-0-0-0-0-2-2-2-2-|

------------------------------------------------------------------|
------------------------------------------------------------------|
------------------------------------------------------------------|
------------------------------------------------------------------|
------------------------------------------------------------------|
--3-3-3-3-3-3-3-3-3-3-3-3-2-2-3-3-2-2-2-2-2-2-2-2-0-0-0-0-2-2-2-2-|

------------------------------------------------------------------|
------------------------------------------------------------------|
------------------------------------------------------------------|
------------------------------------------------------------------|
--7-7-7-7-7-7-7-7-6-6-6-6-6-6-6-6-7-7-7-7-7-7-7-7-9-9-9-9-9-9-9-9-|
------------------------------------------------------------------|

Riff 6

-------------------------------------------------------------------------------|
-------------------------------------------------------------------------------|
-------------------------------------------------------------------------------|
-------------------------------------------------------------------------------|
--10-10-10-10-10-10-10-10-10-10-10-10-9-9-10-10-99-9-9-9-9-9-9-7-7-7-7-9-9-9-9-|
-------------------------------------------------------------------------------|

-------------------------------------------------------------------------------|
-------------------------------------------------------------------------------|
-------------------------------------------------------------------------------|
-------------------------------------------------------------------------------|
--10-10-10-10-10-10-10-10-10-10-10-10-9-9-10-10-99-9-9-9-9-9-9-7-7-7-7-9-9-9-9-|
-------------------------------------------------------------------------------|

-------------------------------------------------------------------------------|
-------------------------------------------------------------------------------|
-------------------------------------------------------------------------------|
-------------------------------------------------------------------------------|
--10-10-10-10-10-10-10-10-10-10-10-10-9-9-10-10-99-9-9-9-9-9-9-7-7-7-7-9-9-9-9-|
-------------------------------------------------------------------------------|

------------------------------------------------------------------|
------------------------------------------------------------------|
------------------------------------------------------------------|
------------------------------------------------------------------|
--7-7-7-7-7-7-7-7-6-6-6-6-6-6-6-6-7-7-7-7-7-7-7-7-9-9-9-9-9-9-9-9-|
------------------------------------------------------------------|
Riff 7
-------------------------------------------|
-------------------------------------------|
-------------------------------------------|
--------------------------7"---------------|
2"------------6"----------5"----------8"---|
0"------------4"----------------------6"---|

   End
Related for Saffrons Curse tab
Advertisement will be closed in 10 seconds