Song name
# A B C D E F G H I J K L M N O P Q R S T U V W X Y Z

Cradle Of Filth - Huge Onyx Wings Behind Despair tab

CRADLE OF FILTH

HUGE ONYX WINGS BEHIND DESPAIR

DGCFAD

TABBED BY andherembrace



-----------------------------------------------------------|
-----------------------------------------------------------|
-----------------------------------------------------------|
-7777777777777777777777771010101010101010-7777777777777777-|
-555555555555555555555555-8-8-8-8-8-8-8-8-5555555555555555-|
-----------------------------------------------------------|

---------------------------------------------------------|
---------------------------------------------------------|
---------------------------------------------------------|
10101010-9999-7777-5555----------------------------------|
-8-8-8-8-7777-5555-3333-66666666666666666666666666666666-|
------------------------44444444444444444444444444444444-|

--------------------------------|
--------------------------------|
--------------------------------|
--------------------------------|
-8888888888888888-----3-3-2-----|
-6666666666666666-000-1-1-0-----|
                  ***

-----------------------------------------------------------|
-----------------------------------------------------------|
-----------------------------------------------------------|
-7777777777777777777777771010101010101010-7777777777777777-|
-555555555555555555555555-8-8-8-8-8-8-8-8-5555555555555555-|
-----------------------------------------------------------|

---------------------------------------------------------|
---------------------------------------------------------|
---------------------------------------------------------|
10101010-9999-7777-5555----------------------------------|
-8-8-8-8-7777-5555-3333-66666666666666666666666666666666-|
------------------------44444444444444444444444444444444-|


--------------------------------|
--------------------------------|
--------------------------------|
--------------------------------|
-8888888888888888-----3-3-2-----|
-6666666666666666-000-1-1-0-----|
                  ***


0:26

----------------------------------------------------------|
----------------------------------------------------------|
----------------------------------------------------------|
------------------------------_---------------------------|
-2------333-2-----2----------/ \----6------5-6--5--3-3-33-|
-0------111-0-----0-----1-3-1-3-1-0-4------3-4--3--1-1-11-|
                                                   * * **
----------------------------------------------------------|
----------------------------------------------------------|
----------------------------------------------------------|
------------------------------_---------------------------|
-2------333-2-----2----------/ \----6------5-6--5--3-3-33-|
-0------111-0-----0-----1-3-1-3-1-0-4------3-4--3--1-1-11-|
                                                   * * **



0:43

-------------------------------------------------------------------|
-------------------------------------------------------------------|
-------------------------------------------------------------------|
-------------------------------------------------------------------|
-------------------------------------------------------------------|
-0-0-0-0-0-0-0-0-1-0-0-0-0-0-0-0-1-3-3-3-3-1-1-1-1-0-0-0-0-1-1-3-3-|


-------------------------------------------------------------|
-------------------------------------------------------------|
-------------------------------------------------------------|
-------------------------------------------------------------|
--------------------------------------------------9-99-8-88--|
-4-4-4-4-3-3-3-3-4-4-4-4-1-1-3-3-4-4-4-4-3-3-3-3--7-77-6-66--|


-------------------------------------------------------------------|
-------------------------------------------------------------------|
-------------------------------------------------------------------|
-------------------------------------------------------------------|
-------------------------------------------------------------------|
-0-0-0-0-0-0-0-0-1-0-0-0-0-0-0-0-1-3-3-3-3-1-1-1-1-0-0-0-0-1-1-3-3-|


-------------------------------------------------------------|
-------------------------------------------------------------|
-------------------------------------------------------------|
-------------------------------------------------------------|
--------------------------------------------------9-99-8-88--|
-4-4-4-4-3-3-3-3-4-4-4-4-1-1-3-3-4-4-4-4-3-3-3-3--7-77-6-66--|



1:01

----------------------------------------------------------------------|
----------------------------------------------------------------------|
----------------------------------------------------------------------|
----------------------------------------------------------------------|
4-3------4---3---4-4-3--------------4-3------4---3---4-4-3----------88|
2-1-0000-2-0-1-0-2-2-1-000000000000-2-1-0000-2-0-1-0-2-2-1-00000000-66|
    ****   *   *       ************     ****   *   *       ********


----------------------------------------------------------------------|
----------------------------------------------------------------------|
----------------------------------------------------------------------|
----------------------------------------------------------------------|
4-3------4---3---4-4-3--------------4-3------4---3---4-4-3----------88|
2-1-0000-2-0-1-0-2-2-1-000000000000-2-1-0000-2-0-1-0-2-2-1-00000000-66|
    ****   *   *       ************     ****   *   *       ********


1:18

-----------------------------------------------------------|
-----------------------------------------------------------|
-----------------------------------------------------------|
-7777777777777777777777771010101010101010-7777777777777777-|
-555555555555555555555555-8-8-8-8-8-8-8-8-5555555555555555-|
-----------------------------------------------------------|

---------------------------------------------------------|
---------------------------------------------------------|
---------------------------------------------------------|
10101010-9999-7777-5555----------------------------------|
-8-8-8-8-7777-5555-3333-66666666666666666666666666666666-|
------------------------44444444444444444444444444444444-|

--------------------------------|
--------------------------------|
--------------------------------|
--------------------------------|
-8888888888888888-----3-3-2-----|
-6666666666666666-000-1-1-0-----|
                  ***

-----------------------------------------------------------|
-----------------------------------------------------------|
-----------------------------------------------------------|
-7777777777777777777777771010101010101010-7777777777777777-|
-555555555555555555555555-8-8-8-8-8-8-8-8-5555555555555555-|
-----------------------------------------------------------|

---------------------------------------------------------|
---------------------------------------------------------|
---------------------------------------------------------|
10101010-9999-7777-5555----------------------------------|
-8-8-8-8-7777-5555-3333-66666666666666666666666666666666-|
------------------------44444444444444444444444444444444-|


--------------------------------|
--------------------------------|
--------------------------------|
--------------------------------|
-8888888888888888-----3-3-2-----|
-6666666666666666-000-1-1-0-----|
                  ***


1:36

----------------------------------------------------------|
----------------------------------------------------------|
----------------------------------------------------------|
------------------------------_---------------------------|
-2------333-2-----2----------/ \----6------5-6--5--3-3-33-|
-0------111-0-----0-----1-3-1-3-1-0-4------3-4--3--1-1-11-|
                                                   * * **
----------------------------------------------------------|
----------------------------------------------------------|
----------------------------------------------------------|
------------------------------_---------------------------|
-2------333-2-----2----------/ \----6------5-6--5--3-3-33-|
-0------111-0-----0-----1-3-1-3-1-0-4------3-4--3--1-1-11-|
                                                   * * **




2:02

-------------------------------------------------------------------|
-------------------------------------------------------------------|
-------------------------------------------------------------------|
-------------------------------------------------------------------|
-------------------------------------------------------------------|
-0-0-0-0-0-0-0-0-1-0-0-0-0-0-0-0-1-3-3-3-3-1-1-1-1-0-0-0-0-1-1-3-3-|


-------------------------------------------------------------|
-------------------------------------------------------------|
-------------------------------------------------------------|
-------------------------------------------------------------|
--------------------------------------------------9-99-8-88--|
-4-4-4-4-3-3-3-3-4-4-4-4-1-1-3-3-4-4-4-4-3-3-3-3--7-77-6-66--|




2:11

----------------------------------------------------------------------|
----------------------------------------------------------------------|
----------------------------------------------------------------------|
----------------------------------------------------------------------|
4-3------4---3---4-4-3--------------4-3------4---3---4-4-3----------88|
2-1-0000-2-0-1-0-2-2-1-000000000000-2-1-0000-2-0-1-0-2-2-1-00000000-66|
    ****   *   *       ************     ****   *   *       ********


----------------------------------------------------------------------|
----------------------------------------------------------------------|
----------------------------------------------------------------------|
----------------------------------------------------------------------|
4-3------4---3---4-4-3--------------4-3------4---3---4-4-3----------88|
2-1-0000-2-0-1-0-2-2-1-000000000000-2-1-0000-2-0-1-0-2-2-1-00000000-66|
    ****   *   *       ************     ****   *   *       ********



2:28

---------------------------------------------------------------|
---------------------------------------------------------------|
---------------------------------------------------------------|
---------------------------------------------------------------|
-5-4----------8----7--8-7-5-4----------5-4---4--3--5-4---4---8-|
-3-2----------6----5--6-5-3-2----------3\2-0-2-010-3\2-0-2-0-6-|
                                           *   ***     *   *
---------------------------------------------------------------|
---------------------------------------------------------------|
---------------------------------------------------------------|
---------------------------------------------------------------|
-5-4----------8----7--8-7-5-4----------5-4---4--3--5-4---4---8-|
-3-2----------6----5--6-5-3-2----------3\2-0-2-010-3\2-0-2-0-6-|
                                           *   ***     *   *



2:46
-----------------------------------------------------------------|
-----------------------------------------------------------------|
-----------------------------------------------------------------|
-----------------------------------------------------------------|
-----------------------------------------------------------------|
3222222222223322333333333333223322222222222233223333666655553333-|

----------------------------------------------------------|
----------------------------------------------------------|
----------------------------------------------------------|
----------------------------------------------------------|
-------------------------------------------------8-7-5-7--|
555555555555665566666666666655665555555555556655-6-5-3-5--|


-----------------------------------------------------------------|
-----------------------------------------------------------------|
-----------------------------------------------------------------|
-----------------------------------------------------------------|
-----------------------------------------------------------------|
3222222222223322333333333333223322222222222233223333666655553333-|

------------------------------------------------------------|
------------------------------------------------------------|
------------------------------------------------------------|
------------------------------------------------------------|
-------------------------------------------------8--7--5--7-|
555555555555665566666666666655665555555555556655-6|-5|-3|-5-|



3:02

-----------------------------------------------------------|
-----------------------------------------------------------|
-----------------------------------------------------------|
-7777777777777777777777771010101010101010-7777777777777777-|
-555555555555555555555555-8-8-8-8-8-8-8-8-5555555555555555-|
-----------------------------------------------------------|

---------------------------------------------------------|
---------------------------------------------------------|
---------------------------------------------------------|
10101010-9999-7777-5555----------------------------------|
-8-8-8-8-7777-5555-3333-66666666666666666666666666666666-|
------------------------44444444444444444444444444444444-|

--------------------------------|
--------------------------------|
--------------------------------|
--------------------------------|
-8888888888888888-----3-3-2-----|
-6666666666666666-000-1-1-0-----|
                  ***

-----------------------------------------------------------|
-----------------------------------------------------------|
-----------------------------------------------------------|
-7777777777777777777777771010101010101010-7777777777777777-|
-555555555555555555555555-8-8-8-8-8-8-8-8-5555555555555555-|
-----------------------------------------------------------|

---------------------------------------------------------|
---------------------------------------------------------|
---------------------------------------------------------|
10101010-9999-7777-5555----------------------------------|
-8-8-8-8-7777-5555-3333-66666666666666666666666666666666-|
------------------------44444444444444444444444444444444-|


--------------------------------|
--------------------------------|
--------------------------------|
--------------------------------|
-8888888888888888-----3-3-2-----|
-6666666666666666-000-1-1-0-----|
                  ***


3:21

----------------------------------------------------------|
----------------------------------------------------------|
----------------------------------------------------------|
------------------------------_---------------------------|
-2------333-2-----2----------/ \----6------5-6--5--3-3-33-|
-0------111-0-----0-----1-3-1-3-1-0-4------3-4--3--1-1-11-|
                                                   * * **
----------------------------------------------------------|
----------------------------------------------------------|
----------------------------------------------------------|
------------------------------_---------------------------|
-2------333-2-----2----------/ \----6------5-6--5--3-3-33-|
-0------111-0-----0-----1-3-1-3-1-0-4------3-4--3--1-1-11-|
                                                   * * **



3:38

-------------------------------------------------------------------|
-------------------------------------------------------------------|
-------------------------------------------------------------------|
-------------------------------------------------------------------|
-------------------------------------------------------------------|
-0-0-0-0-0-0-0-0-1-0-0-0-0-0-0-0-1-3-3-3-3-1-1-1-1-0-0-0-0-1-1-3-3-|


-------------------------------------------------------------|
-------------------------------------------------------------|
-------------------------------------------------------------|
-------------------------------------------------------------|
--------------------------------------------------9-99-8-88--|
-4-4-4-4-3-3-3-3-4-4-4-4-1-1-3-3-4-4-4-4-3-3-3-3--7-77-6-66--|


-------------------------------------------------------------------|
-------------------------------------------------------------------|
-------------------------------------------------------------------|
-------------------------------------------------------------------|
-------------------------------------------------------------------|
-0-0-0-0-0-0-0-0-1-0-0-0-0-0-0-0-1-3-3-3-3-1-1-1-1-0-0-0-0-1-1-3-3-|


-------------------------------------------------------------|
-------------------------------------------------------------|
-------------------------------------------------------------|
-------------------------------------------------------------|
--------------------------------------------------9-99-8-88--|
-4-4-4-4-3-3-3-3-4-4-4-4-1-1-3-3-4-4-4-4-3-3-3-3--7-77-6-66--|



3:56

----------------------------------------------------------------------|
----------------------------------------------------------------------|
----------------------------------------------------------------------|
----------------------------------------------------------------------|
4-3------4---3---4-4-3--------------4-3------4---3---4-4-3----------88|
2-1-0000-2-0-1-0-2-2-1-000000000000-2-1-0000-2-0-1-0-2-2-1-00000000-66|
    ****   *   *       ************     ****   *   *       ********


----------------------------------------------------------------|
----------------------------------------------------------------|
----------------------------------------------------------------|
----------------------------------------------------------------|
4-3------4---3---4-4-3--------------4-3------4---3---4-4-3------|
2-1-0000-2-0-1-0-2-2-1-000000000000-2-1-0000-2-0-1-0-2-2-1-0000-|
    ****   *   *       ************     ****   *   *       ****

----------------------|
----------------------|
----------------------|
----------------------|
-8-7---6---8----------|
-6\5-0-4-0-6----------|
     *   *
Tap to rate this tab
# A B C D E F G H I J K L M N O P Q R S T U V W X Y Z