Song name
# A B C D E F G H I J K L M N O P Q R S T U V W X Y Z

Cradle Of Filth - Succumb To This tab

CRADLE OF FILTH

SUCCUMB TO THIS

DGCFAD


TABBED BY andherembrace



---------------------------------------------------------------|
---------------------------------------------------------------|
---------------------------------------------------------------|
---------------------------------------------------------------|
-2-2-2-2--2-2-2-3-2-2-2--2-2-2-5-5-5-5--5-5-5-3-3-3-3--3-3-3---|
-0-0-0-0--0-0-0-1-0-0-0--0-0-0-3-3-3-3--3-3-3-1-1-1-1--1-1-1---|


----------------------------------------------------------------|
----------------------------------------------------------------|
----------------------------------------------------------------|
----------------------------------------------------------------|
-2-2-2-2--2-2-2-3-2-2-2--2-2-2-5-5-5-5--5-5-5------/\-------/\--|
-0-0-0-0--0-0-0-1-0-0-0--0-0-0-3-3-3-3--3-3-3-3-5-3530-1-3-1310-|




0:10

MELODY
---------------------------------------------------------------|
---------------------------------------------------------------|
-9\4-4---------4/9-9\5-5-------5/9-9\7-7------7-9-7-9-10-9-7-9-|
---------------------------------------------------------------|
---------------------------------------------------------------|
---------------------------------------------------------------|
RYTHM
----------------------------------------------------------------|
----------------------------------------------------------------|
----------------------------------------------------------------|
----------------------------------------------------------------|
-2-2-2-2--2-2-2--3-3-3-3--3-3-3--5-5-5-5--5-5-5--3-3-3-3--3-3-3-|
-0-0-0-0--0-0-0--1-1-1-1--1-1-1--3-3-3-3--3-3-3--1-1-1-1--1-1-1-|
 * * *    * * *  * * *    * * *  * * *    * * *  * * *    * * *


MELODY
-----------------------------------------------------------------|
-----------------------------------------------------------------|
-9\4-4---------4/9-9\5-5-------5/9-9\7-9------9-12-10-9-10-9--9--|
------------------------------------------------------------12---|
-----------------------------------------------------------------|
-----------------------------------------------------------------|
RYTHM
------------------------------------------------------------------|
------------------------------------------------------------------|
------------------------------------------------------------------|
------------------------------------------------------------------|
-2-2-2-2--2-2-2--3-3-3-3--3-3-3--5-5-5-5--5-5-5------/\-------/\--|
-0-0-0-0--0-0-0--1-1-1-1--1-1-1--3-3-3-3--3-3-3-3-5-3530-1-3-1310-|
 * * *    * * *  * * *    * * *   



0:21

-------------------------------------------------------------------------|
-------------------------------------------------------------------------|
-------------------------------------------------------------------------|
-------------------------------------------------------------------------|
3--5--6--5-6-5---3-5-3-6-6--3-6-6-8-6--2--3--6--5---2222-3-3-2222--------|
1--3--4--3-4-3---1-3-1-4-4--1-4-4-6-4--0--1--4--3---0000-1-1-0000-1-4-3-1|
                                                    ****     ****

-------------------------------------------------------------------------|
-------------------------------------------------------------------------|
-------------------------------------------------------------------------|
-------------------------------------------------------------------------|
3--5--6--5-6-5---3-5-3-6-6--3-6-6-8-6--2--3--6--5---2222-3-3-2222--------|
1--3--4--3-4-3---1-3-1-4-4--1-4-4-6-4--0--1--4--3---0000-1-1-0000-1-4-3-1|
                                                    ****     ****


0:40
      
MELODY
---------------------------------------------------------------|
---------------------------------------------------------------|
-9\4-4---------4/9-9\5-5-------5/9-9\7-7------7-9-7-9-10-9-7-9-|
---------------------------------------------------------------|
---------------------------------------------------------------|
---------------------------------------------------------------|
RYTHM
----------------------------------------------------------------|
----------------------------------------------------------------|
----------------------------------------------------------------|
----------------------------------------------------------------|
-2-2-2-2--2-2-2--3-3-3-3--3-3-3--5-5-5-5--5-5-5--3-3-3-3--3-3-3-|
-0-0-0-0--0-0-0--1-1-1-1--1-1-1--3-3-3-3--3-3-3--1-1-1-1--1-1-1-|
 * * *    * * *  * * *    * * *  * * *    * * *  * * *    * * *

MELODY
-----------------------------------------------------------------|
-----------------------------------------------------------------|
-9\4-4---------4/9-9\5-5-------5/9-9\7-9------9-12-10-9-10-9--9--|
------------------------------------------------------------12---|
-----------------------------------------------------------------|
-----------------------------------------------------------------|
RYTHM
------------------------------------------------------------------|
------------------------------------------------------------------|
------------------------------------------------------------------|
------------------------------------------------------------------|
-2-2-2-2--2-2-2--3-3-3-3--3-3-3--5-5-5-5--5-5-5------/\-------/\--|
-0-0-0-0--0-0-0--1-1-1-1--1-1-1--3-3-3-3--3-3-3-3-5-3530-1-3-1310-|
 * * *    * * *  * * *    * * *    

MELODY
---------------------------------------------------------------|
---------------------------------------------------------------|
-9\4-4---------4/9-9\5-5-------5/9-9\7-7------7-9-7-9-10-9-7-9-|
---------------------------------------------------------------|
---------------------------------------------------------------|
---------------------------------------------------------------|
RYTHM
----------------------------------------------------------------|
----------------------------------------------------------------|
----------------------------------------------------------------|
----------------------------------------------------------------|
-2-2-2-2--2-2-2--3-3-3-3--3-3-3--5-5-5-5--5-5-5--3-3-3-3--3-3-3-|
-0-0-0-0--0-0-0--1-1-1-1--1-1-1--3-3-3-3--3-3-3--1-1-1-1--1-1-1-|
 * * *    * * *  * * *    * * *  * * *    * * *  * * *    * * *

MELODY
-----------------------------------------------------------------|
-----------------------------------------------------------------|
-9\4-4---------4/9-9\5-5-------5/9-9\7-9------9-12-10-9-10-9--9--|
------------------------------------------------------------12---|
-----------------------------------------------------------------|
-----------------------------------------------------------------|
RYTHM
------------------------------------------------------------------|
------------------------------------------------------------------|
------------------------------------------------------------------|
------------------------------------------------------------------|
-2-2-2-2--2-2-2--3-3-3-3--3-3-3--5-5-5-5--5-5-5------/\-------/\--|
-0-0-0-0--0-0-0--1-1-1-1--1-1-1--3-3-3-3--3-3-3-3-5-3530-1-3-1310-|
 * * *    * * *  * * *    * * *    



1:01

-------------------------------------------------------------------------|
-------------------------------------------------------------------------|
-------------------------------------------------------------------------|
-------------------------------------------------------------------------|
3--5--6--5-6-5---3-5-3-6-6--3-6-6-8-6--2--3--6--5---2222-3-3-2222--------|
1--3--4--3-4-3---1-3-1-4-4--1-4-4-6-4--0--1--4--3---0000-1-1-0000-1-4-3-1|
                                                    ****     ****

-------------------------------------------------------------------------|
-------------------------------------------------------------------------|
-------------------------------------------------------------------------|
-------------------------------------------------------------------------|
3--5--6--5-6-5---3-5-3-6-6--3-6-6-8-6--2--3--6--5---2222-3-3-2222--------|
1--3--4--3-4-3---1-3-1-4-4--1-4-4-6-4--0--1--4--3---0000-1-1-0000-1-4-3-1|
                                                    ****     ****


      
1:21
                                
-------------------------------------------|
-------------------------------------------|
-----^-------------------^-----------------|
----2-0-----------------2-0----------------|
-2-------^---8-88-8--2-------^---3-3-6-5---|
-0------6-3--6-66-6--0------6-3--1-1-4-3---|


-------------------------------------------|
-------------------------------------------|
-----^-------------------^-----------------|
----2-0-----------------2-0----------------|
-2-------^---8-88-8--2-------^---3-3-6-5---|
-0------6-3--6-66-6--0------6-3--1-1-4-3---|


-------------------------------------------|
-------------------------------------------|
-----^-------------------^-----------------|
----2-0-----------------2-0----------------|
-2-------^---8-88-8--2-------^---3-3-6-5---|
-0------6-3--6-66-6--0------6-3--1-1-4-3---|


-------------------------------------------|
-------------------------------------------|
-----^-------------------^-----------------|
----2-0-----------------2-0----------------|
-2-------^---8-88-8--2-------^---3-3-6-5---|
-0------6-3--6-66-6--0------6-3--1-1-4-3---|


-------------------------------------------|
-------------------------------------------|
-----^-------------------^-----------------|
----2-0-----------------2-0----------------|
-2-------^---8-88-8--2-------^---3-3-6-5---|
-0------6-3--6-66-6--0------6-3--1-1-4-3---|


-------------------------------------------|
-------------------------------------------|
-----^-------------------^-----------------|
----2-0-----------------2-0----------------|
-2-------^---8-88-8--2-------^---3-3-6-5---|
-0------6-3--6-66-6--0------6-3--1-1-4-3---|




1:51

-----------------------------------------------------------|
-----------------------------------------------------------|
-----------------------------------------------------------|
-----------------------------------------------------------|
-8-7--7-7-4--4-4--4--4-4-4-4--8-7--7-7-4--4-10-10-1010-9-9-|
-6-5--5-5-2--2-2--2--2-2-2-2--6-5--5-5-2--2--8--8--8-8-7-7-|

-----------------------------------------------------------|
-----------------------------------------------------------|
-----------------------------------------------------------|
-----------------------------------------------------------|
-8-7--7-7-4--4-4--4--4-4-4-4--8-7--7-7-4--4-10-10-1010-9-9-|
-6-5--5-5-2--2-2--2--2-2-2-2--6-5--5-5-2--2--8--8--8-8-7-7-|

-----------------------------------------------------------|
-----------------------------------------------------------|
-----------------------------------------------------------|
-----------------------------------------------------------|
-8-7--7-7-4--4-4--4--4-4-4-4--8-7--7-7-4--4-10-10-1010-9-9-|
-6-5--5-5-2--2-2--2--2-2-2-2--6-5--5-5-2--2--8--8--8-8-7-7-|

-----------------------------------------------------------|
-----------------------------------------------------------|
-----------------------------------------------------------|
-----------------------------------------------------------|
-8-7--7-7-4--4-4--4--4-4-4-4--8-7--7-7-4--4-10-10-1010-9-9-|
-6-5--5-5-2--2-2--2--2-2-2-2--6-5--5-5-2--2--8--8--8-8-7-7-|



2:12

---------------------------------------------------------------------|
---------------------------------------------------------------------|
---------------------------------------------------------------------|
-5555555555555555-77777777-44444444-10101010101010101010101010101010-|
-7777777777777777-99999999-55555555-12121212121212121212121212121212-|
---------------------------------------------------------------------|

---------------------------------------|
---------------------------------------|
---------------------------------------|
-1414141414141414-12121212-10101010----|
-1212121212121212-12121212-12121212----|
---------------------------------------|

---------------------------------------------------------------------|
---------------------------------------------------------------------|
---------------------------------------------------------------------|
-5555555555555555-77777777-44444444---------------------4-5----------|
-7777777777777777-99999999-55555555---5--------4--------2/3----5-5-4-|
--------------------------------------3----0-0-2----0-0-----0--3-3-2-|
                                           * *      * *     *


2:31

-----------------------------------------------------------------|
-----------------------------------------------------------------|
-----------------------------------------------------------------|
-----------------------------------------------------------------|
-5-5-5-5-5-5-5-5-5-5-5-5-5-5-5-5-4-4-4-4-4-4-444-4-4-4-4-4-4-4-4-|
-3-3-3-3-3-3-3-3-3-3-3-3-3-3-3-3-2-2-2-2-2-2-222-2-2-2-2-2-2-2-2-|

-----------------------------------------------------------------|
-----------------------------------------------------------------|
-----------------------------------------------------------------|
-----------------------------------------------------------------|
-7-7-7-7-7-7-7-7-7-7-7-7-7-7-7-7-9-9-9-9-9-9-9-9-7-9-9-7-9-9-7-7-|
-5-5-5-5-5-5-5-5-5-5-5-5-5-5-5-5-7-7-7-7-7-7-7-7-5-7-7-5-7-7-5-5-|


------------------------------------------------------------------|
------------------------------------------------------------------|
------------------------------------------------------------------|
------------------------------------------------------------------|
-5-5-5-5-5-5-5-5-5-5-5-5-5-5-5555-4-4-4-4-4-4-4-4-4-4-4-4-4-4-4-4-|
-3-3-3-3-3-3-3-3-3-3-3-3-3-3-3333-2-2-2-2-2-2-2-2-2-2-2-2-2-2-2-2-|


-------------------------------------------------------------------|
-------------------------------------------------------------------|
-------------------------------------------------------------------|
-------------------------------------------------------------------|
-7-7-7-7-7-7-7-777-7-7-7-7-7-7-7-7-9-9-9-9-9-9-9-9-7-9-9-7-9-9-7-7-|
-5-5-5-5-5-5-5-555-5-5-5-5-5-5-5-5-7-7-7-7-7-7-7-7-5-7-7-5-7-7-5-5-|


---------------------------------------------------------|
---------------------------------------------------------|
---------------------------------------------------------|
--------------9--------------------------4-5-------------|
-2--------9---7-----5-----------4--------2/3----5-4-4----|
-0--------7---7-----3-------0-0-2----0-0-----0--3-2-2----|
                            * *      * *     *



3:02

1
---------------------------------------------------------------------|
---------------------------------------------------------------------|
--12-------11-12-11--9-9/11---11-12-14----12-14-16----14-16-14--12-11|
---------------------------------------------------------------------|
---------------------------------------------------------------------|
---------------------------------------------------------------------|
2
---------------------------------------------------------------------|
---------------------------------------------------------------------|
---------------------------------------------------------------------|
--5--------4-5-4----2-2/4----4-5-7--------5-7-9------7-9-7------5-4--|
---------------------------------------------------------------------|
---------------------------------------------------------------------|

1
----------------------------------------------------------------------|
----------------------------------------------------------------------|
--12-----12-11-12-11--9-9/11---14-12-14----12-14-16----14-16-14--12-11|
----------------------------------------------------------------------|
----------------------------------------------------------------------|
----------------------------------------------------------------------|
2
---------------------------------------------------------------------|
---------------------------------------------------------------------|
---------------------------------------------------------------------|
--5-------5-4-5-4----2-2/4----7-5-7--------5-7-9------7-9-7------5-7-|
---------------------------------------------------------------------|
---------------------------------------------------------------------|



3:22

---------------------------------------------------------|
---------------------------------------------------------|
---------------------------------------------------------|
--------------9--------------------------4-5-------------|
-2--------9---7-----5-----------4--------2/3----5-4------|
-0--------7---7-----3-------0-0-2----0-0-----0--3-2------|
                            * *      * *     *


3:32

---------------------------------------------------------------|
---------------------------------------------------------------|
---------------------------------------------------------------|
---------------------------------------------------------------|
-2-2-2-2--2-2-2-3-2-2-2--2-2-2-5-5-5-5--5-5-5-3-3-3-3--3-3-3---|
-0-0-0-0--0-0-0-1-0-0-0--0-0-0-3-3-3-3--3-3-3-1-1-1-1--1-1-1---|


----------------------------------------------------------------|
----------------------------------------------------------------|
----------------------------------------------------------------|
----------------------------------------------------------------|
-2-2-2-2--2-2-2-3-2-2-2--2-2-2-5-5-5-5--5-5-5------/\-------/\--|
-0-0-0-0--0-0-0-1-0-0-0--0-0-0-3-3-3-3--3-3-3-3-5-3530-1-3-1310-|





MELODY
---------------------------------------------------------------|
---------------------------------------------------------------|
-9\4-4---------4/9-9\5-5-------5/9-9\7-7------7-9-7-9-10-9-7-9-|
---------------------------------------------------------------|
---------------------------------------------------------------|
---------------------------------------------------------------|
RYTHM
----------------------------------------------------------------|
----------------------------------------------------------------|
----------------------------------------------------------------|
----------------------------------------------------------------|
-2-2-2-2--2-2-2--3-3-3-3--3-3-3--5-5-5-5--5-5-5--3-3-3-3--3-3-3-|
-0-0-0-0--0-0-0--1-1-1-1--1-1-1--3-3-3-3--3-3-3--1-1-1-1--1-1-1-|
 * * *    * * *  * * *    * * *  * * *    * * *  * * *    * * *


MELODY
-----------------------------------------------------------------|
-----------------------------------------------------------------|
-9\4-4---------4/9-9\5-5-------5/9-9\7-9------9-12-10-9-10-9--9--|
------------------------------------------------------------12---|
-----------------------------------------------------------------|
-----------------------------------------------------------------|
RYTHM
------------------------------------------------------------------|
------------------------------------------------------------------|
------------------------------------------------------------------|
------------------------------------------------------------------|
-2-2-2-2--2-2-2--3-3-3-3--3-3-3--5-5-5-5--5-5-5------/\-------/\--|
-0-0-0-0--0-0-0--1-1-1-1--1-1-1--3-3-3-3--3-3-3-3-5-3530-1-3-1310-|
 * * *    * * *  * * *    * * *   


MELODY
---------------------------------------------------------------|
---------------------------------------------------------------|
-9\4-4---------4/9-9\5-5-------5/9-9\7-7------7-9-7-9-10-9-7-9-|
---------------------------------------------------------------|
---------------------------------------------------------------|
---------------------------------------------------------------|
RYTHM
----------------------------------------------------------------|
----------------------------------------------------------------|
----------------------------------------------------------------|
----------------------------------------------------------------|
-2-2-2-2--2-2-2--3-3-3-3--3-3-3--5-5-5-5--5-5-5--3-3-3-3--3-3-3-|
-0-0-0-0--0-0-0--1-1-1-1--1-1-1--3-3-3-3--3-3-3--1-1-1-1--1-1-1-|
 * * *    * * *  * * *    * * *  * * *    * * *  * * *    * * *


MELODY
-----------------------------------------------------------------|
-----------------------------------------------------------------|
-9\4-4---------4/9-9\5-5-------5/9-9\7-9------9-12-10-9-10-9--9--|
------------------------------------------------------------12---|
-----------------------------------------------------------------|
-----------------------------------------------------------------|
RYTHM
------------------------------------------------------------------|
------------------------------------------------------------------|
------------------------------------------------------------------|
------------------------------------------------------------------|
-2-2-2-2--2-2-2--3-3-3-3--3-3-3--5-5-5-5--5-5-5------/\-------/\--|
-0-0-0-0--0-0-0--1-1-1-1--1-1-1--3-3-3-3--3-3-3-3-5-3530-1-3-1310-|
 * * *    * * *  * * *    * * *   




-------------------------------------------------------------------------|
-------------------------------------------------------------------------|
-------------------------------------------------------------------------|
-------------------------------------------------------------------------|
3--5--6--5-6-5---3-5-3-6-6--3-6-6-8-6--2--3--6--5---2222-3-3-2222--------|
1--3--4--3-4-3---1-3-1-4-4--1-4-4-6-4--0--1--4--3---0000-1-1-0000-1-4-3-1|
                                                    ****     ****

-------------------------------------------------------------------------|
-------------------------------------------------------------------------|
-------------------------------------------------------------------------|
-------------------------------------------------------------------------|
3--5--6--5-6-5---3-5-3-6-6--3-6-6-8-6--2--3--6--5---2222-3-3-2222--------|
1--3--4--3-4-3---1-3-1-4-4--1-4-4-6-4--0--1--4--3---0000-1-1-0000-1-4-3-1|
                                                    ****     ****



---------------------------------------------------------------|
---------------------------------------------------------------|
---------------------------------------------------------------|
----------------------4-5--------------------------------------|
-5-----------4--------2/3----5-5-------------------------------|
-3-------0-0-2----0-0-----0--3-2-------------------------------|
         * *      * *     *
Tap to rate this tab
 
# A B C D E F G H I J K L M N O P Q R S T U V W X Y Z