Song name
# A B C D E F G H I J K L M N O P Q R S T U V W X Y Z

Cradle Of Filth - Nocturnal Supremacy tab

 Nocturnal Supremacy - Cradle of Filth
 `'`'`'`'`'`'`'`'`'`'`'`'`'`'`'`'`'`'`
 Very beginning stages. Do what you will with this. A lot of the song is based
 on that first riff played at different speeds and with different picking over
 the same set of notes. Oh, the chords are definately wrong.
 Email to BRUNOR@SGGS.WCAPE.SCHOOL.ZA

  Riff 1a:                         Riff 1b:
 |----------------------------|   |----------------------------|
 |----------------------------|   |----------------------------|
 |----------------------------|   |----------------------------|
 |----------------------------|   |-7--8p7h8-8p7--5--------5-7-|
 |-5--6p5h6-6p5--3--------3-5-|   |------------------8-7-8-----|
 |------------------6-5-6-----|   |----------------------------|

 |------------------|
 |------------------|
 |------------------|
 |-7---6-7-6---6--9-|
 |-5---4-5-4---4--7-|
 |-5---4-5-4---4--7-|

 |-------------------------------------------------------|
 |-------------------------------------------------------|
 |-------------------------------------------------------|
 |-------------------------------------------------------|
 |-------------------------------------------------------|
 |-------------------------------------------------------|
Tap to rate this tab
 
# A B C D E F G H I J K L M N O P Q R S T U V W X Y Z