Song name
# A B C D E F G H I J K L M N O P Q R S T U V W X Y Z

Cradle Of Filth - Scorched Earth Erotica tab

Help us improve GuitareTab! Take a short survey!
Cradle of filth
Scorched Earth Erotica
tabbed by dieter oberholster

Tune guitars one step to D

Figure 1, guitar 1
|------------------------------------------------|
|------------------------------------------------|
|------------------------------------------------|
|------------------------------------------------|
|/8--7~~~---let ring-----------------------------|
|------------------------------------------------|

Figure 1, guitar 2
|----------------------------------------------------------------------------|
|----------------------------------------------------------------------------|
|----------------------------------------------------------------------------|
|----------------------------------------------------------------------------|
|----------------------------------------------------------------------------|
|----------------------------------------------------------------------------|

Figure 2, Guitar 1
|----------------------------------------------------------------------------|
|----------------------------------------------------------------------------|
|----------------------------------------------------------------------------|
|----------------------------------------------------------------------------|
|----------------------------------------------------------------------------|
|----------------------------------------------------------------------------|

Figure 2, Guitar 2
|----------------------------------------------------------------------------|
|----------------------------------------------------------------------------|
|---------4--5--4-------7--5--4--5-------4--5--------------------------------|
|5--7----2--3--2---7---5--3--2--3-------2--3---------------------------------|
|3--5---------------5--------------------------------------------------------|
|----------------------------------------------------------------------------|

|----------------------------------------------------------------------------|
|----------------------------------------------------------------------------|
|---------4--5--4-------7--5--4--5-------4--5--------------------------------|
|5--7----2--3--2---7---5--3--2--3-------2--3---------------------------------|
|3--5---------------5--------------------------------------------------------|
|----------------------------------------------------------------------------|


Figure 3, Guitar 2
|----------------------------------------------------------------------------|
|----------------------------------------------------------------------------|
|---------4--5--4-------7--5--4--5-------4--5--------------------------------|
|5--7----2--3--2---7---5--3--2--3-------2--3---------------------------------|
|3--5---------------5--------------------------------------------------------|
|----------------------------------------------------------------------------|

|--------------------------------------------------------------------------------|
|--------------------------------------------------------------------------------|
|--------------------------------------------------------------------------------|
|9-10--9-------------------------------------9-10--9-----------------------------|
|7--8--7------------------------7-8-7-------7--8--7--------------8p7h8-7p6h7-6p5-|
|----------0-0-0-0----5-6-5-----------------------------0-0-0-0------------------|
              ppppp    pppp   pppp                      ppppp


Figure 4, guitar 2
|--------------------------------------------------------------------------------|
|--------------------------------------------------------------------------------|
|--------------------------------------------------------------------------------|
|9-10--9-------------------------------------9-10--9-----------------------------|
|7--8--7------------------------7-8-7-------7--8--7--------------8p7h8-7p6h7-6p5-|
|----------0-0-0-0----5-6-5-----------------------------0-0-0-0------------------|
              ppppp    pppp   pppp                      ppppp


Figure 5, guitar 1 part b palm mute all
|--------------------------------------------------------------------------------|
|--------------------------------------------------------------------------------|
|--------------------------------------------------------------------------------|
|9--9--9--9--9--9--9--9--9--9--9--9--9--9-----8--8--8--8--8--8--8--8--8--8--8--8-|
|7--7--7--7--7--7--7--7--7--7--7--7--7--7-----6--6--6--6--6--6--6--6--6--6--6--6-|
|--------------------------------------------------------------------------------|

Figure 5, guitar 1 part b palm mute all
|--------------------------------------------------------------------------------|
|--------------------------------------------------------------------------------|
|9--9--9--9--9--9--9--9--9--9--9--9--9--9----10-10-10-1010-101010-10-10-10-1010--|
|7--7--7--7--7--7--7--7--7--7--7--7--7--7-----8--8--8--8--8--8--8--8--8--8--8--8-|
|--------------------------------------------------------------------------------|
|--------------------------------------------------------------------------------|

Figure 5, guitar 2
|--------------------------------------------------------------------------------|
|--------------------------------------------------------------------------------|
|--------------------------------------------------------------------------------|
|------------14----------------------14------------------------13----------------|
|12-14-15-----15-14---12-14-15-----15-14-----11-13-14-----14-13---11-13-14-----1-|
|--------------------------------------------------------------------------------|

|--------------------------------------------------------------------------------|
|--------------------------------------------------------------------------------|
|-----------13----------------------13------------------------14-----------------|
|11-13-14----14-13---11-13-14-----14-13-----12-14-15-----15-14---12-14-15-----15-|
|--------------------------------------------------------------------------------|
|--------------------------------------------------------------------------------|

Figure 6, guitar 1
|-------------------------------------------------------------------------------|
|-------------------------------------------------------------------------------|
|-----11------11------11------11------9------9-----9-----9------7-----7-------6-|
|--11------11------11------11-------9------9-----9-----9------7-----7-------6---|
|9-------9-------9-------9--------7------7------7-----7------5-----5------4-----|
|-------------------------------------------------------------------------------|

Figure 6, Guitar 2
|-------------------------------------------------------------------------------|
|-------------------------------------------------------------------------------|
|-----11------11------11------11------9------9-----9-----9------7-----7-------6-|
|--11------11------11------11-------9------9-----9-----9------7-----7-------6---|
|9-------9-------9-------9--------7------7------7-----7------5-----5------4-----|
|-------------------------------------------------------------------------------|

Key: / or \ slide up or down
H hammer on
P pull off
^ bend
T tremolo pick
A artificial harmonic
N natural harmonic
* trill
~ Vibrato
P palm pute
Related for Scorched Earth Erotica tab