Song name
# A B C D E F G H I J K L M N O P Q R S T U V W X Y Z

Cradle Of Filth - Queen Of Winter Throned tab

Cradle of Filth Queen of Winter, Throned
originally off of Vempire or Dar FaireyTaels in Phallustein
really good song love to play it
 
Intro Riff A
|------------------------------------------------------------------------|-----|
|------------------------------------------------------------------------|-----|
|---------------------------------------------------------------------9--|--9--|
|---7~--7-9-10-7-10-9h10p9---8---8-10-11-8-11-10h11p10---7---7-9-10---7--|--9--|
|------------------------------------------------------------------------|--7--|
|------------------------------------------------------------------------|-----|


Riff B
|--------|-------------------------------------|
|--------|-------------------------------------|
|--9-9-9-|--4--4-4--4-4--4-4--4/5--5-5--9-9-9--|
|--9-7-9-|--2--2-2--4-2--4-2--4/5--5-5--9-7-9--|
|--7-7-7-|--2--2-2--2-2--2-2--2/3--3-3--7-7-7--|
|--------|-------------------------------------|

Riff B.2  twiceeach
|---------------------------|--------------------------|
|---------------------------|--------------------------|
|---------------------------|--------------------------|
|-------11"--7"-11"--7"-11"-|------11"--7"-11"--7"-11"-|
|--9"-----------------------|-7"-----------------------|
|---------------------------|--------------------------|

Repeat Riff B
Then Riff B.2

Riff C
|-------------------------------------------------|
|-------------------------------------------------|
|--2--2--2--4--4--4--4-4--2--2--2-----------------|
|--2--2--2--4--4--4--4-4--2--2--2--5-3-5-3-----5--|
|--0--0--0--0--2--2--2-2--0--0--0----------5-3----|
|-------------------------------------------------|

Riff C.2
|----------------------------------------|------------------------------------|
|----------------------------------------|------------------------------------|
|----------------------------------------|------------------------------------|
|----------10"-9"-7"----7"-9"-10"-7"-----|----7"-5"-4"----4"-2"----3"----3"---|
|--9"----------------9"--------------9"--|-7"----------7"-------5"----5"----9-|
|----------------------------------------|------------------------------------|
After the first Couple times Paul starts to play the riff two strings up


Riff C.3
|--------------------------------------|-----------------|
|--------------------------------------|-----------------|
|--------------------------------------|-----------------|
|-4/6-6--6--6-6-6--4/6-6-6/8-8-8/10-10-|-----------------|
|-4/6-6--6--6-6-6--4/6-6-6/8-8-8/10-10-|-6-5-4-2-4-2-4-2-|
|-2/4-4--4--4-4-4--2/4-4-4/6-6-6/8--8--|-4-3-2-0-2-0-2-0-|
                                         . . . . . . . .

Riff D Paul
|----------------------------|--------------------------|-------------|
|----------------------------|--------------------------|-2"-3"-4"-6"-|
|-----2"-4"-2"-5"-4"-2"-4"p2-|-----2"-4"-2"-------------|-------------|
|--4"------------------------|--4"----------5"-3"----3"-|-------------|
|----------------------------|--------------------5"----|-------------|
|----------------------------|--------------------------|-------------|

Gian
|-----------------------------|----------------------------|--------------|
|-----------------------------|----------------------------|--------------|
|-----------------------------|----------------------------|-7"-8"-9"-10"-|
|-----7"-9"-7"-10"-9"-7"-9"p7-|-----7"-9"-7"---------------|--------------|
|--9"-------------------------|--9"----------10"-7"-----7"-|--------------|
|-----------------------------|---------------------10"----|--------------|


Chorus Riff
|-------------|-------------|-------------|-------------------------|
|-------------|-------------|-------------|-------------------------|
|-------------|-------------|-------------|-------------------------|
|----2"-3"-2"-|----2"-3"-2"-|----2"-3"-2"-|----2"-3"-2"-5"-3"-2"-3"-|
|-5"----------|-3"----------|-1"----------|-3"----------------------|
|-------------|-------------|-------------|-------------------------|


Riff D.2
|-------------------------------|
|-------------------------------|
|-------------------------------|
|-11"-12"-11"-10-11"-12"-11"-10-|
|-11"-12"-11"-10-11"-12"-11"-10-|
|-9"--10"-9"--8--9"--10"-9"--8--|

Fill A
|---------------------|
|---------------------|
|--5---3--------------|
|--5---3--8---6---3---|
|--3---1--8---6---3---|
|---------6---4---1---|

Fill B
|-----|
|-----|
|--11-|
|--11-|
|--9--|
|-----|


Riff D.3
|---------------------------------|
|---------------------------------|
|---------------------------------|
|---------------------------------|
|-----8-7-----10-9-----8-7--5-4/7-|
|--5-------5--------5-------------|

Riff D.4
|--------------------------------------------|
|--------------------------------------------|
|--------------------------------------------|
|--------------------------------------------|
|-----8"-7"-----10"-9"------8"-7"--5"-4"/7"--|
|--5"--------5"---------5"-------------------|

Then Repeat Riff C.3
The Riff D
Then The Chorus
Then Riff D.2

Fill C
|----------------------------------|
|----------------------------------|
|-3-----6-----10-----12--10--9--8--|
|-3-----6-----10-----12--10--9--8--|
|-1-----4-----8------10--8---7--6--|
|----------------------------------|

Riff E  Strum each Chord
|----------------------------------|
|----------------------------------|
|-3-----6-----10-----12--10--9--8--|
|-3-----6-----10-----12--10--9--8--|
|-1-----4-----8------10--8---7--6--|
|----------------------------------|


Riff E.2
|--------------------------------------------|
|--------------------------------------------|
|------------------------------9-7-----------|
|-4---6--8-----10---8--12--10------10-9-7----|
|-4---6--8-----10---8--12--10-------------10-|
|-2---4--6-----8----6--10--8-----------------|

Riff E.3
|--------------------------------------------|-----|
|--------------------------------------------|-----|
|--------------------------------------------|--6--|
|-4"----6"--8"-----10"---8"--12"--10"-8"-7"--|--6--|
|-4"----6"--8"-----10"---8"--12"--10"-8"-7"--|--4--|
|-2"----4"--6"-----8"----6"--10"--8"--6"-5"--|-----|


Riff E.4
|--------|--------|
|--------|--------|
|--5--3--|--3-5-6-|
|--5--3--|--3-5-6-|
|--3--1--|--1-3-4-|
|--------|--------|

Riff G
|-------------------------------|-------------------------------|
|-------------------------------|-------------------------------|
|---------8"-6"-----------8"-6"-|---------5"-3"-----------5"-3"-|
|--5"--7"-------5"--6"-7"-------|--2"--4"-------2"--3"-4"-------|
|-------------------------------|-------------------------------|
|-------------------------------|-------------------------------|

Riff G.2
|-------------------|-----------------|
|-------------------|-----------------|
|-------------------|-----------------|
|----------7-5----5-|---------4-2---2-|
|------8-6----------|-----5-3---------|
|--5-7---------7----|-2-4---------4---|

Riff G.3
|---------------|
|---------------|
|--5--------7---|
|--5--6---9-7-5-|
|--3--6---9-5-5-|
|-----4---7---3-|

Different ending *
|-----------------------------------------------------------------------------------|
|-----------------------------------------------------------------------------------|
|-----------------------------------------------------------------------------------|
|------3"-2"---------3"-2"----3"-2"h3"p2"-3"-2"h3"p2"-3"-2"h3"p2"-3"-2"h3"p2"-------|
|--2"--------5"---2"-------5"-------------------------------------------------5"----|
|--------------------------------------------------------------------------------4"-|
Tap to rate this tab
# A B C D E F G H I J K L M N O P Q R S T U V W X Y Z