Song name
# A B C D E F G H I J K L M N O P Q R S T U V W X Y Z

Cradle Of Filth - Nymphetamine tab

Song: Nymphetamine Fix
Artist: Cradle of Filth
Album: Nymphetamine

Cradle of Filth tunes to D standard (from low to high: D G C F A d).  I've seen so many version of this 
song tabbed in Drop C, standard, dropped D etc.
They have only ever used a different tuning for one song (Better to Reign in Hell from the album 
Damnation and a Day)

The structure is at the bottom. All parts are in 6/8 timing apart from Part E which is in 2/4

Part A

  1  +  2  +  3  +  4  +  5  +  6  +     1  +  2  +  3  +  4  +  5  +  6  +
|--------------------------------------|--------------------------------------|
|--------------------------------------|--------------------------------------|
|--------------------------------------|--------------------------------------|
|-7------------------------------------|-3------------------------------------|
|-5------------------------------------|-3------------------------------------|
|-5------------------------------------|-1------------------------------------|

  1  +  2  +  3  +  4  +  5  +  6  +     1  +  2  +  3  +  4  +  5  +  6  +
|--------------------------------------|--------------------------------------|
|--------------------------------------|--------------------------------------|
|--------------------------------------|--------------------------------------|
|-8-----------------5------------------|-7------------------------------------|
|-8-----------------5------------------|-5------------------------------------|
|-6-----------------3------------------|-5------------------------------------|

Part B

|Guitar 1
| 1  +  2  +  3  +  4  +  5  +  6  +     1  +  2  +  3  +  4  +  5  +  6  +
|--------------------------------------|--------------------------------------|
|-10-8--10----10-8--10-8--10----10-8---|-10-8--10----10-8--10-8--10----10-8---|
|----------10----------------10--------|----------9-----------------9---------|
|--------------------------------------|--------------------------------------|
|--------------------------------------|--------------------------------------|
|--------------------------------------|--------------------------------------|
|
|Guitar 2
| 1  +  2  +  3  +  4  +  5  +  6  +     1  +  2  +  3  +  4  +  5  +  6  +
|--------------------------------------|--------------------------------------|
|--------------------------------------|--------------------------------------|
|-10-9--10----10-9--10-9--10----10-9---|-10-9--10----10-9--10-9--10----10-9---|
|----------12----------------12--------|----------10-----------------10-------|
|--------------------------------------|--------------------------------------|
|--------------------------------------|--------------------------------------|

|Guitar 1
| 1  +  2  +  3  +  4  +  5  +  6  +     1  +  2  +  3  +  4  +  5  +  6  +
|--------------------------------------|--------------------------------------|
|-10-8--10----10-8--10-8--10----10-8---|-10-8--10----10-8--10-8--10-11-10-8---|
|----------7-----------------7---------|----------10--------------------------|
|--------------------------------------|--------------------------------------|
|--------------------------------------|--------------------------------------|
|--------------------------------------|--------------------------------------|
|
|Guitar 2
| 1  +  2  +  3  +  4  +  5  +  6  +     1  +  2  +  3  +  4  +  5  +  6  +
|--------------------------------------|--------------------------------------|
|--------------------------------------|--------------------------------------|
|-10-9--10----10-9--10-9--10----10-9---|-10-9--10----10-9--10-9--10-12-10-9---|
|----------8-----------------8---------|----------7---------------------------|
|--------------------------------------|--------------------------------------|
|--------------------------------------|--------------------------------------|


Part C1

  1  +  2  +  3  +  4  +  5  +  6  +     1  +  2  +  3  +  4  +  5  +  6  +
|--------------------------------------|--------------------------------------|
|--------------------------------------|--------------------------------------|
|--------------------------------------|--------------------------------------|
|-7--7--7--7--7--7--5--5--5--5--5--5---|-7--7--7--7--7--7--3--3--3--3--3--3---|
|-7--7--7--7--7--7--5--5--5--5--5--5---|-7--7--7--7--7--7--3--3--3--3--3--3---|
|-5--5--5--5--5--5--3--3--3--3--3--3---|-5--5--5--5--5--5--1--1--1--1--1--1---|

  1  +  2  +  3  +  4  +  5  +  6  +     1  +  2  +  3  +  4  +  5  +  6  +
|--------------------------------------|--------------------------------------|
|--------------------------------------|--------------------------------------|
|--------------------------------------|--------------------------------------|
|-7--7--7--7--7--7--5--5--5--5--5--5---|-3--3--3--3--3--3--5--5--5--5--5--5---|
|-7--7--7--7--7--7--5--5--5--5--5--5---|-3--3--3--3--3--3--5--5--5--5--5--5---|
|-5--5--5--5--5--5--3--3--3--3--3--3---|-1--1--1--1--1--1--3--3--3--3--3--3---|


Part C2

|Guitar 1
| 1  +  2  +  3  +  4  +  5  +  6  +     1  +  2  +  3  +  4  +  5  +  6  +
|--------------------------------------|--------------------------------------|
|-13----12----13-10-12-10--------------|-------13----12----15----17-17--------|
|-------------------------12-----------|-9------------------------------------|
|--------------------------------------|--------------------------------------|
|--------------------------------------|--------------------------------------|
|--------------------------------------|--------------------------------------|
|
|Guitar 2
| 1  +  2  +  3  +  4  +  5  +  6  +     1  +  2  +  3  +  4  +  5  +  6  +
|--------------------------------------|--------------------------------------|
|--------------------------------------|--------------------------------------|
|--------------------------------------|--------------------------------------|
|-7--7--7--7--7--7--5--5--5--5--5--5---|-7--7--7--7--7--7--3--3--3--3--3--3---|
|-7--7--7--7--7--7--5--5--5--5--5--5---|-7--7--7--7--7--7--3--3--3--3--3--3---|
|-5--5--5--5--5--5--3--3--3--3--3--3---|-5--5--5--5--5--5--1--1--1--1--1--1---|


|Guitar 1
| 1  +  2  +  3  +  4  +  5  +  6  +     1  +  2  +  3  +  4  +  5  +  6  +
|--------------------------------------|--------------------------------------|
|-13----12----13-10-12----10-----------|-13----12----10----15----13----12-----|
|-------------------------------12-----|--------------------------------------|
|--------------------------------------|--------------------------------------|
|--------------------------------------|--------------------------------------|
|--------------------------------------|--------------------------------------|
|
|Guitar 2
| 1  +  2  +  3  +  4  +  5  +  6  +     1  +  2  +  3  +  4  +  5  +  6  +
|--------------------------------------|--------------------------------------|
|--------------------------------------|--------------------------------------|
|--------------------------------------|--------------------------------------|
|-7--7--7--7--7--7--5--5--5--5--5--5---|-3-----------------5------------------|
|-7--7--7--7--7--7--5--5--5--5--5--5---|-3-----------------5------------------|
|-5--5--5--5--5--5--3--3--3--3--3--3---|-1-----------------3------------------|


Part D1

  1     +     2     +     3     +     4     +     5     +     6     +
|-------------------------------------------------------------------------|
|-------------------------------------------------------------------------|
|-------------------------9-----10----9-------10p9------------10----12----|
|-10-------12-12----------------------------------12----------------------|
|-------------------------------------------------------------------------|
|-------------------------------------------------------------------------|

  1     +     2     +     3     +     4     +     5     +     6     +
|-------------------------------------------------------------------------|
|-------------------------10----11----10-----11p10------------------------|
|-10----12p10-9-----------------------------------12-------14p12-10-12-14-|
|-------------------------------------------------------------------------|
|-------------------------------------------------------------------------|
|-------------------------------------------------------------------------|


Part D2

|Guitar 1
| 1     +     2     +     3     +     4     +     5     +     6     +
|-------------------------------------------------------------------------|
|-------------------------10----11----10-----11p10------------10----11----|
|-9--------10-10----------------------------------10----------------------|
|-------------------------------------------------------------------------|
|-------------------------------------------------------------------------|
|-------------------------------------------------------------------------|
|
|Guitar 2
| 1     +     2     +     3     +     4     +     5     +     6     +
|-------------------------------------------------------------------------|
|-------------------------------------------------------------------------|
|-------------------------9-----10----9-------10p9------------10----12----|
|-10-------12-12----------------------------------12----------------------|
|-------------------------------------------------------------------------|
|-------------------------------------------------------------------------|

|Guitar 1
| 1     +     2     +     3     +     4     +     5     +     6     +
|-------------------------------------------------------------------------|
|-10----11p10-------------13----15----13----15p13-15----13h15p13----------|
|-------------12-------------------------------------------------10-12-14-|
|-------------------------------------------------------------------------|
|-------------------------------------------------------------------------|
|-------------------------------------------------------------------------|
|
|Guitar 2
| 1     +     2     +     3     +     4     +     5     +     6     +
|-------------------------------------------------------------------------|
|-------------------------10----11----10-----11p10------------------------|
|-10----12p10-9-----------------------------------12-------14p12-10-12-14-|
|-------------------------------------------------------------------------|
|-------------------------------------------------------------------------|
|-------------------------------------------------------------------------|


Part E

  1  +  2  +
|-------------|
|-------------|
|-------------|
|-5-----5-----|
|-3-----3-----|
|-3-----3-----|


Part F

  1  +  2  +  3  +  4  +  5  +  6  +     1  +  2  +  3  +  4  +  5  +  6  +
|--------------------------------------|--------------------------------------|
|--------------------------------------|--------------------------------------|
|--------------------------------------|--------------------------------------|
|-9-----------------8------------------|-5----------------6-------------------|
|-7-----------------6------------------|-3----------------4-------------------|
|-7-----------------6------------------|-3----------------4-------------------|

Part G

  1  +  2  +  3  +  4  +  5  +  6  +
|--------------------------------------|
|--------------------------------------|
|--------------------------------------|
|-7------------------------------------|
|-5------------------------------------|
|-5------------------------------------|

  1  +  2  +  3  +  4  +  5  +  6  +     1  +  2  +  3  +  4  +  5  +  6  +
|--------------------------------------|--------------------------------------|
|--------------------------------------|--------------------------------------|
|--------------------------------------|--------------------------------------|
|(7)-----------------------------------|(7)-----------------------------------|
|(5)-----------------------------------|(5)-----------------------------------|
|(5)-----------------------------------|(5)-----------------------------------|


Part H

|Guitar 1
| 1  +  2  +  3  +  4  +  5  +  6  +
|--------------------------------------|
|-------------------10-8--10-11-10-8---|
|--------------------------------------|
|--------------------------------------|
|--------------------------------------|
|--------------------------------------|
|
|Guitar 2
| 1  +  2  +  3  +  4  +  5  +  6  +
|--------------------------------------|
|--------------------------------------|
|-------------------10-9--10-12-10-9---|
|--------------------------------------|
|--------------------------------------|
|--------------------------------------|

Structure

Part A  x6
Part B  x2
Part C1 x1
Part C2 x1
Part D1 x1
Part D2 x1
Part E  x1
Part F  x4
Part G  x1
Part H  x1
Part B  x2
Part C1 x1
Part C2 x1
Part D1 x2
Part D2 x2
Part E  x1
Part F  x4
Part G  x1
Tap to rate this tab
 
# A B C D E F G H I J K L M N O P Q R S T U V W X Y Z