Guitaretab - guitar tabs
Song name
# A B C D E F G H I J K L M N O P Q R S T U V W X Y Z

Cradle Of Filth - Nymphetamine tab

Guitar 1 : CGCFAD (Drop C)

Guitar 2 : CGCFAD (Drop C)

Guitar 3 : CGCFAD (Drop C)

Keyboard

b = bend
r = return
\ = slide down
/ = slide up
h = hammer-on
p = pull-off
. = staccato


****************************
Concerning Staccato:

*Very Rigid, Sharp; Say "tick" one time, as fast as you can. Play the notes just like 
said "tick"*

*****************************


 Intro
 =====

 Guitar 1 & 2

|-------------|-------------|------------|-------------|
|-------------|-------------|------------|-------------|
|-------------|-------------|------------|-------------|
|------0------|-----3-------|----8--5----|------0------| 2X
|------0------|-----3-------|----8--5----|------0------|
|------0------|-----3-------|----8--5----|------0------|
|                                                      |
|                                                      |
| Keyboard                                             |
|                                                      |
|                                                      |
|-------------|-------------|------------|-------------|
|--6-5-6---6-5|-6-5-6---6-5-|-6-5-6---6-5|-6-5-6---6-5-|
|--------7----|-------7-----|-------5----|-------5-----|
|-------------|-------------|------------|-------------|
|-------------|-------------|------------|-------------|
|-------------|-------------|------------|-------------|
|             |             |            |             | 2X
|-------------|-------------|------------|-------------|
|--6-5-6---6-5|-6-5-6---6-5-|-6-5-6---6-5|-6-5-6-8-6-5-|
|--------3----|-------3-----|-------2----|-------------|
|-------------|-------------|------------|-------------|
|-------------|-------------|------------|-------------|
|-------------|-------------|------------|-------------|


 Verse 1
 =======

 Guitar 1 & 2

|-------------|-------------|------------|-------------|
|-------------|-------------|------------|-------------|
|-------------|-------------|------------|-------------|
|------0------|-----3-------|----8--5----|------0------| 2X
|------0------|-----3-------|----8--5----|------0------|
|------0------|-----3-------|----8--5----|------0------|

 Guitar 1 & 2


|-------------|-------------|------------|-------------|
|-------------|-------------|------------|-------------|
|-------------|-------------|------------|-------------| 2X
|------0------|-----3-------|----8--5----|------0------|
|------0------|-----3-------|----8--5----|------0------|
|------0------|-----3-------|----8--5----|------0------|
|                                                      |
|                                                      |
|                                                      |
| Guitar 3                                             |
|                                                      |
|                                                      |
|-------------|-------------|------------|-------------|
|--6-5-6---6-5|-6-5-6---6-5-|-6-5-6---6-5|-6-5-6---6-5-|
|--------7----|-------7-----|-------5----|-------5-----|
|-------------|-------------|------------|-------------|
|-------------|-------------|------------|-------------|
|-------------|-------------|------------|-------------|
|             |             |            |             | 2x
|-------------|-------------|------------|-------------|
|--6-5-6---6-5|-6-5-6---6-5-|-6-5-6---6-5|-6-5-6-8-6-5-|
|--------3----|-------3-----|-------2----|-------------|
|-------------|-------------|------------|-------------|
|-------------|-------------|------------|-------------|
|-------------|-------------|------------|-------------|


 Chorus
 ======

 Guitar 1 & 2

  . . . . . .   . . . . . .   . . . . . .   . . . . . .
|-------------|-------------|-------------|-------------|
|-------------|-------------|-------------|-------------|
|-------------|-------------|-------------|-------------|
|-7-7-7-7-7-7-|-5-5-5-5-5-5-|-7-7-7-7-7-7-|-3-3-3-3-3-3-|
|-7-7-7-7-7-7-|-5-5-5-5-5-5-|-7-7-7-7-7-7-|-3-3-3-3-3-3-|
|-7-7-7-7-7-7-|-5-5-5-5-5-5-|-7-7-7-7-7-7-|-3-3-3-3-3-3-|
|                                                       |
| . . . . . .   . . . . . .   . . . . . .   . . . . . . | 4X
|                                                       |
|-------------|-------------|-------------|-------------|
|-------------|-------------|-------------|-------------|
|-------------|-------------|-------------|-------------|
|-7-7-7-7-7-7-|-5-5-5-5-5-5-|-3-3-3-3-3-3-|-5-5-5-5-5-5-|
|-7-7-7-7-7-7-|-5-5-5-5-5-5-|-3-3-3-3-3-3-|-5-5-5-5-5-5-|
|-7-7-7-7-7-7-|-5-5-5-5-5-5-|-3-3-3-3-3-3-|-5-5-5-5-5-5-|
|
|
|
| **Guitar 3 (Start on 3rd Time)**
|
|
|----------------------------------------------------|
|----------------------------------------------------|
|-17-16b17r16-14-16-14---------16b17r16-14-19/21-21--|
|----------------------17---14-----------------------|
|----------------------------------------------------|
|----------------------------------------------------|
|                                                    | **On 3rd Time**
|----------------------------------------------------|
|-17-16b17r16-14-16-14-----17-16-14--19-17-16-14~~---|
|-----------------------17---------------------------|
|----------------------------------------------------|
|----------------------------------------------------|
|----------------------------------------------------|


 Guitar 1

|--------------------------------------------------------------------|
|--------5-6-5-6p5\3-6-8-6-8p6\5-10-11-10-11p10p8-6-8-10-------------|
|-5/7-7~~------------------------------------------------------------| 2X
|--------------------------------------------------------------------|
|--------------------------------------------------------------------|
|--------------------------------------------------------------------|
|
|Guitar 2
|
|--------5-6-5-6p5\3-5-6-5-6p5\3-8-10-8-10p8p7------------|
|-5/6-6~~-----------------------------------------6-8-10--|
|---------------------------------------------------------| **On 2nd Time**
|---------------------------------------------------------|
|---------------------------------------------------------|
|---------------------------------------------------------|


 Verse 2
 =======

 Guitar 1, 2, & 3

|---------| |------------------|
|---------| |------------------|
|---------| |------------------|
|--10-10--| |--14--13--10--11--| 4X
|--10-10--| |--14--13--10--11--|
|--10-10--| |--14--13--10--11--|

|-----|
|-----|
|-----| **Let Ring**
|--0--|
|--0--|
|--0--|

 Keyboard

|-------------|-------------|------------|-------------|
|--6-5-6---6-5|-6-5-6---6-5-|-6-5-6---6-5|-6-5-6---6-5-|
|--------7----|-------7-----|-------5----|-------5-----|
|-------------|-------------|------------|-------------|
|-------------|-------------|------------|-------------|
|-------------|-------------|------------|-------------|
|
|-------------|-------------|------------|-------------|
|--6-5-6---6-5|-6-5-6---6-5-|-6-5-6---6-5|-6-5-6-8-6-5-|
|--------3----|-------3-----|-------2----|-------------|
|-------------|-------------|------------|-------------|
|-------------|-------------|------------|-------------|
|-------------|-------------|------------|-------------|

 Guitar 1
[ Tab from: http://www.guitaretab.com/c/cradle-of-filth/53202.html ]
|---------------|
|--6-5-6-8-6-5--|
|---------------|
|---------------|
|---------------|
|---------------|
|               | **Line up with the Keyboards last bar above !!**
|Guitar 2       |
|               |
|--5-3-5-6-5-3--|
|---------------|
|---------------|
|---------------|
|---------------|
|---------------|

 Verse 1
 =======


 Guitar 1, 2, & 3


|-------------|-------------|------------|-------------|
|-------------|-------------|------------|-------------|
|-------------|-------------|------------|-------------| 2X
|------0------|-----3-------|----8--5----|------0------|
|------0------|-----3-------|----8--5----|------0------|
|------0------|-----3-------|----8--5----|------0------|
|                                                      |
|                                                      |
|                                                      |
|Guitar 2                                              |
|                                                      |
|                                                      |
|-------------|-------------|------------|-------------|
|--6-5-6---6-5|-6-5-6---6-5-|-6-5-6---6-5|-6-5-6---6-5-|
|--------7----|-------7-----|-------5----|-------5-----|
|-------------|-------------|------------|-------------|
|-------------|-------------|------------|-------------|
|-------------|-------------|------------|-------------|
|             |             |            |             | 2x
|-------------|-------------|------------|-------------|
|--6-5-6---6-5|-6-5-6---6-5-|-6-5-6---6-5|-6-5-6-8-6-5-|
|--------3----|-------3-----|-------2----|-------------|
|-------------|-------------|------------|-------------|
|-------------|-------------|------------|-------------|
|-------------|-------------|------------|-------------|
|                                                      |
|                                                      |
|                                                      |
|Guitar 3                                              |
|                                                      |
|                                                      |
|--5-3-5---5-3|-5-3-5---5-3-|-5-3-5---5-3|-5-3-5---5-3-|
|--------3----|-------3-----|------------|-------------|
|-------------|-------------|-------5----|-------5-----|
|-------------|-------------|------------|-------------|
|-------------|-------------|------------|-------------|
|-------------|-------------|------------|-------------|
|                                                      | 2x
|--5-3-5---5-3|-5-3-5---5-3-|-5-3-5---5-3|-5-3-5-6-5-3-|
|-------------|-------------|------------|-------------|
|--------3----|-------3-----|-------0----|-------------|
|-------------|-------------|------------|-------------|
|-------------|-------------|------------|-------------|
|-------------|-------------|------------|-------------|

 Chorus
 ======

 Guitar 1 & 2

  . . . . . .   . . . . . .   . . . . . .   . . . . . .
|-------------|-------------|-------------|-------------|
|-------------|-------------|-------------|-------------|
|-------------|-------------|-------------|-------------|
|-7-7-7-7-7-7-|-5-5-5-5-5-5-|-7-7-7-7-7-7-|-3-3-3-3-3-3-|
|-7-7-7-7-7-7-|-5-5-5-5-5-5-|-7-7-7-7-7-7-|-3-3-3-3-3-3-|
|-7-7-7-7-7-7-|-5-5-5-5-5-5-|-7-7-7-7-7-7-|-3-3-3-3-3-3-|
|                                                       |
| . . . . . .   . . . . . .   . . . . . .   . . . . . . | 4X
|                                                       |
|-------------|-------------|-------------|-------------|
|-------------|-------------|-------------|-------------|
|-------------|-------------|-------------|-------------|
|-7-7-7-7-7-7-|-5-5-5-5-5-5-|-3-3-3-3-3-3-|-5-5-5-5-5-5-|
|-7-7-7-7-7-7-|-5-5-5-5-5-5-|-3-3-3-3-3-3-|-5-5-5-5-5-5-|
|-7-7-7-7-7-7-|-5-5-5-5-5-5-|-3-3-3-3-3-3-|-5-5-5-5-5-5-|
|
|
|
| **Guitar 3 (Start on 3rd Time)**
|
|
|----------------------------------------------------|
|----------------------------------------------------|
|-17-16b17r16-14-16-14---------16b17r16-14-19/21-21--|
|----------------------17---14-----------------------|
|----------------------------------------------------|
|----------------------------------------------------|
|                                                    | **On 3rd Time**
|----------------------------------------------------|
|-17-16b17r16-14-16-14-----17-16-14--19-17-16-14~~---|
|-----------------------17---------------------------|
|----------------------------------------------------|
|----------------------------------------------------|
|----------------------------------------------------|

 Guitar 1

|--------------------------------------------------------------------|
|--------5-6-5-6p5\3-6-8-6-8p6\5-10-11-10-11p10p8-6-8-10-------------|
|-5/7-7~~------------------------------------------------------------| 2X
|--------------------------------------------------------------------|
|--------------------------------------------------------------------|
|--------------------------------------------------------------------|
|
| Guitar 2
|
|--------5-6-5-6p5\3-5-6-5-6p5\3-8-10-8-10p8p7------------|
|-5/6-6~~-----------------------------------------6-8-10--|
|---------------------------------------------------------| **On 2nd Time**
|---------------------------------------------------------|
|---------------------------------------------------------|
|---------------------------------------------------------|

 Guitar 1

|--------------------------------------------------------------------|
|--------5-6-5-6p5\3-6-8-6-8p6\5-10-11-10-11p10p8-6-8-10-------------|
|-5/7-7~~------------------------------------------------------------| 2X
|--------------------------------------------------------------------|
|--------------------------------------------------------------------|
|--------------------------------------------------------------------|
|
|Guitar 2
|
|--------5-6-5-6p5\3-5-6-5-6p5\3--8-10-8-10p8h10---------------------|
|-5/6-6~~-----------------------------------------6-8-10-------------|
|--------------------------------------------------------------------| 2X
|--------------------------------------------------------------------|
|--------------------------------------------------------------------|
|--------------------------------------------------------------------|

 Verse 2
 =======

 Guitar 1 & 2

|---------| |-----------------|
|---------| |-----------------|
|---------| |-----------------|
|--10-10--| |--14--13--9--10--| 4X
|--10-10--| |--14--13--9--10--|
|--10-10--| |--14--13--9--10--|

|-----|
|-----|
|-----| **Let Ring**
|--0--|
|--0--|
|--0--|

 Keyboard

|-------------|-------------|------------|-------------|
|--6-5-6---6-5|-6-5-6---6-5-|-6-5-6---6-5|-6-5-6---6-5-|
|--------7----|-------7-----|-------5----|-------5-----|
|-------------|-------------|------------|-------------|
|-------------|-------------|------------|-------------|
|-------------|-------------|------------|-------------|

|-------------|-------------|------------|-------------|
|--6-5-6---6-5|-6-5-6---6-5-|-6-5-6---6-5|-6-5-6-8-6-5-|
|--------3----|-------3-----|-------2----|-------------|
|-------------|-------------|------------|-------------|
|-------------|-------------|------------|-------------|
|-------------|-------------|------------|-------------|
Related for Nymphetamine tab
×
Nymphetamine