Song name
# A B C D E F G H I J K L M N O P Q R S T U V W X Y Z

Cradle Of Filth - Coffin Fodder tab

                            Coffin Fodder                                   


                                                                 Cradle Of Filth
D||----------------------------------|----------------------------------|
A||----------------------------------|----------------------------------|
F||----------------------------------|----------------------------------|
C||----------------------------------|----------------------------------|
G||--3-3-3-3-3-3-3-3-5-5-6-6-5-5-6-6-|--3-3-3-3-3-3-3-3-5-5-6-6-5-5-6-6-|
D||----------------------------------|----------------------------------|



----------------------------------|----------------------------------|
----------------------------------|----------------------------------|
----------------------------------|----------------------------------|
--3-3-3-3-3-3-3-3-1-3-1-1-1-1-1-3-|--1-0-0-0-0-0-3-1-3-3-5-3-5-5-3-5-|
----------------------------------|----------------------------------|
----------------------------------|----------------------------------|
 
----------------------|--------------------|--------------------|
----------------------|--------------------|--------------------|
--5--------5----5--8--|--5------------7----|--8------------7----|
--5--------5----5--8--|--5------------7----|--8------------7----|
--3--------3----3--6--|--3------------5----|--6------------5----|
----------------------|--------------------|--------------------|

  
----------------------|---------------------|--------------------|
----------------------|---------------------|--------------------|
-----------8----10----|--5------------L--8--|--5------------7----|
--8--------8----10----|--5------------L--8--|--5------------7----|
--8--------6-----8----|--3------------L--6--|--3------------5----|
--6-------------------|---------------------|--------------------|

 
----------------------|-----------------------|------------------------|
----------------------|-----------------------|------------------------|
--8----7---------7----|--5----7----8----10----|--5~--------7--8--7--8--|
--8----7----8----7----|--5----7----8----10----|------------------------|
--6----5----8----5----|--3----5----6-----8----|------------------------|
------------6---------|-----------------------|------------------------|


   
------------------------|------------------------|------------------------|
------------------------|------------------------|------------6--8--6--8--|
--5~--------7--8--7-----|----------8--10----8----|--7~--------------------|
---------------------8--|--6~--------------------|------------------------|
------------------------|------------------------|------------------------|
------------------------|------------------------|------------------------|

  
------------------------|------------------------|------------------------|
------------------------|------------------------|------------------------|
--5~--------7--8--7--8--|--5~--------7--8--7-----|----------8--10----8----|
------------------------|---------------------8--|--6~--------------------|
------------------------|------------------------|------------------------|
------------------------|------------------------|------------------------|

 
------------------------|-----------------------------------------|
------------6--8--6--8--|-----------------------------------------|
--7~--------------------|--5--------5--------5--------------------|
------------------------|--5--------5--------5--------------------|
------------------------|--3--3--3--3--3--3--3--3--3--3--3--3--3--|
------------------------|-----------------------------------------|


      
--------------------------------|--------------------------|
--------------------------------|--------------------------|
--5--------5--------5--8--7-----|--------------------------|
--5--------5--------5--8--7--8--|--6--------6---6--------L-|
--3--3--3--3--3--3--3--6--5--8--|--6--------6---6--------L-|
-----------------------------6--|--4--4--4--4---4--------L-|


  
----------------------------|-----------------------------------------|
----------------------------|-----------------------------------------|
----------------------------|--5--------5--------5--------------------|
--8--------8----3--5--3--5--|--5--------5--------5--------------------|
--8--------8----3--5--3--5--|--3--3--3--3--3--3--3--3--3--3--3--3--3--|
--6--6--6--6----1--3--1--3--|-----------------------------------------|

  
--------------------------------|--------------------------|
--------------------------------|--------------------------|
--5--------5--------5--8--7-----|--------------------------|
--5--------5--------5--8--7--8--|--6--------6---6--------L-|
--3--3--3--3--3--3--3--6--5--8--|--6--------6---6--------L-|
-----------------------------6--|--4--4--4--4---4--------L-|

   
----------------------------|---------------------|--------------------|
----------------------------|---------------------|--------------------|
----------------------------|--5------------L--8--|--5------------7----|
--8--------8----3--5--3--5--|--5------------L--8--|--5------------7----|
--8--------8----3--5--3--5--|--3------------L--6--|--3------------5----|
--6--6--6--6----1--3--1--3--|---------------------|--------------------|

  
--------------------|----------------------|---------------------|
--------------------|----------------------|---------------------|
--8------------7----|-----------8----10----|--5------------L--8--|
--8------------7----|--8--------8----10----|--5------------L--8--|
--6------------5----|--8--------6-----8----|--3------------L--6--|
--------------------|--6-------------------|---------------------|


---|
--------------------|----------------------|-----------------------|
--5------------7----|--8----7---------7----|--5----7----8----10----|
--5------------7----|--8----7----8----7----|--5----7----8----10----|
--3------------5----|--6----5----8----5----|--3----5----6-----8----|
--------------------|------------6---------|-----------------------|

--------------------------|-------------------------------|
--------------------------|-------------------------------|
--10S------3------10s--9--|--2----2--2--2--2--2--2--2--2--|
--10S------3------10s--9--|--2----2--2--2--2--2--2--2--2--|
---8S------1-------8s--7--|--0----0--0--0--0--0--0--0--0--|
--------------------------|-------------------------------|

  
--------------------------|---------------------|--------------------------|
--------------------------|---------------------|--------------------------|
--10S------3------10s--9--|--7------9------6----|--10S------3------10s--9--|
--10S------3------10s--9--|--7------9------6----|--10S------3------10s--9--|
---8S------1-------8s--7--|--5------7------4----|---8S------1-------8s--7--|
--------------------------|---------------------|--------------------------|


 
-------------------------------|--------------------------|
-------------------------------|--------------------------|
--2----2--2--2--2--2--2--2--2--|--10S------3------10s--9--|
--2----2--2--2--2--2--2--2--2--|--10S------3------10s--9--|
--0----0--0--0--0--0--0--0--0--|---8S------1-------8s--7--|
-------------------------------|--------------------------|

 
-----------------------|--------------------------|
-----------------------|--------------------------|
--5------10------5--7--|--10S------3------10s--9--|
--5------10------5--7--|--10S------3------10s--9--|
--3-------8------3--5--|---8S------1-------8s--7--|
-----------------------|--------------------------|


   
-------------------------------|--------------------------|
-------------------------------|--------------------------|
--2----2--2--2--2--2--2--2--2--|--10S------3------10s--9--|
--2----2--2--2--2--2--2--2--2--|--10S------3------10s--9--|
--0----0--0--0--0--0--0--0--0--|---8S------1-------8s--7--|
-------------------------------|--------------------------|

  
---------------------|--------------------------|
---------------------|--------------------------|
--7------9------6----|--10S------3------10s--9--|
--7------9------6----|--10S------3------10s--9--|
--5------7------4----|---8S------1-------8s--7--|
---------------------|--------------------------|


    
-------------------------------|--------------------------|
-------------------------------|--------------------------|
--2----2--2--2--2--2--2--2--2--|--10S------3------10s--9--|
--2----2--2--2--2--2--2--2--2--|--10S------3------10s--9--|
--0----0--0--0--0--0--0--0--0--|---8S------1-------8s--7--|
-------------------------------|--------------------------|
  
-----------------------|------------------------|------------------------|
-----------------------|------------------------|------------------------|
--5------10------5--7--|--5~--------7--8--7--8--|--5~--------7--8--7-----|
--5------10------5--7--|------------------------|---------------------8--|
--3-------8------3--5--|------------------------|------------------------|
-----------------------|------------------------|------------------------|


------------------------|------------------------|------------------------|
------------------------|------------6--8--6--8--|------------------------|
----------8--10----8----|--7~--------------------|--5~--------7--8--7--8--|
--6~--------------------|------------------------|------------------------|
------------------------|------------------------|------------------------|
------------------------|------------------------|------------------------|


------------------------|------------------------|------------------------|
------------------------|------------------------|------------6--8--6--8--|
--5~--------7--8--7-----|----------8--10----8----|--7~--------------------|
---------------------8--|--6~--------------------|------------------------|
------------------------|------------------------|------------------------|
------------------------|------------------------|------------------------|
 
-----------------------------------------|--------------------------------|
-----------------------------------------|--------------------------------|
--5--------5--------5--------------------|--5--------5--------5--8--7-----|
--5--------5--------5--------------------|--5--------5--------5--8--7--8--|
--3--3--3--3--3--3--3--3--3--3--3--3--3--|--3--3--3--3--3--3--3--6--5--8--|
-----------------------------------------|-----------------------------6--|

  
--------------------------|----------------------------|
--------------------------|----------------------------|
--------------------------|----------------------------|
--6--------6---6--------L-|--8--------8----3--5--3--5--|
--6--------6---6--------L-|--8--------8----3--5--3--5--|
--4--4--4--4---4--------L-|--6--6--6--6----1--3--1--3--|


  
-----------------------------------------|--------------------------------|
-----------------------------------------|--------------------------------|
--5--------5--------5--------------------|--5--------5--------5--8--7-----|
--5--------5--------5--------------------|--5--------5--------5--8--7--8--|
--3--3--3--3--3--3--3--3--3--3--3--3--3--|--3--3--3--3--3--3--3--6--5--8--|
-----------------------------------------|-----------------------------6--|


 
--------------------------|----------------------------|---------------------|
--------------------------|----------------------------|---------------------|
--------------------------|----------------------------|--5------------L--8--|
--6--------6---6--------L-|--8--------8----3--5--3--5--|--5------------L--8--|
--6--------6---6--------L-|--8--------8----3--5--3--5--|--3------------L--6--|
--4--4--4--4---4--------L-|--6--6--6--6----1--3--1--3--|---------------------|
    
--------------------|--------------------|----------------------|
--------------------|--------------------|----------------------|
--5------------7----|--8------------7----|-----------8----10----|
--5------------7----|--8------------7----|--8--------8----10----|
--3------------5----|--6------------5----|--8--------6-----8----|
--------------------|--------------------|--6-------------------|

     
---------------------|--------------------|----------------------|
---------------------|--------------------|----------------------|
--5------------L--8--|--5------------7----|--8----7---------7----|
--5------------L--8--|--5------------7----|--8----7----8----7----|
--3------------L--6--|--3------------5----|--6----5----8----5----|
---------------------|--------------------|------------6---------|

   
-----------------------|--------------------------|
-----------------------|--------------------------|
--5----7----8----10----|--10S------3------10s--9--|
--5----7----8----10----|--10S------3------10s--9--|
--3----5----6-----8----|---8S------1-------8s--7--|
-----------------------|--------------------------|

  
-------------------------------|--------------------------|
-------------------------------|--------------------------|
--2----2--2--2--2--2--2--2--2--|--10S------3------10s--9--|
--2----2--2--2--2--2--2--2--2--|--10S------3------10s--9--|
--0----0--0--0--0--0--0--0--0--|---8S------1-------8s--7--|
-------------------------------|--------------------------|
  
---------------------|--------------------------|
---------------------|--------------------------|
--7------9------6----|--10S------3------10s--9--|
--7------9------6----|--10S------3------10s--9--|
--5------7------4----|---8S------1-------8s--7--|
---------------------|--------------------------|


  
-------------------------------|--------------------------|
-------------------------------|--------------------------|
--2----2--2--2--2--2--2--2--2--|--10S------3------10s--9--|
--2----2--2--2--2--2--2--2--2--|--10S------3------10s--9--|
--0----0--0--0--0--0--0--0--0--|---8S------1-------8s--7--|
-------------------------------|--------------------------|


-----------------------|--------------------------|
-----------------------|--------------------------|
--5------10------5--7--|--10S------3------10s--9--|
--5------10------5--7--|--10S------3------10s--9--|
--3-------8------3--5--|---8S------1-------8s--7--|
-----------------------|--------------------------|


  
-------------------------------|--------------------------|
-------------------------------|--------------------------|
--2----2--2--2--2--2--2--2--2--|--10S------3------10s--9--|
--2----2--2--2--2--2--2--2--2--|--10S------3------10s--9--|
--0----0--0--0--0--0--0--0--0--|---8S------1-------8s--7--|
-------------------------------|--------------------------|
  
---------------------|--------------------------|
---------------------|--------------------------|
--7------9------6----|--10S------3------10s--9--|
--7------9------6----|--10S------3------10s--9--|
--5------7------4----|---8S------1-------8s--7--|
---------------------|--------------------------|


   
-------------------------------|--------------------------|
-------------------------------|--------------------------|
--2----2--2--2--2--2--2--2--2--|--10S------3------10s--9--|
--2----2--2--2--2--2--2--2--2--|--10S------3------10s--9--|
--0----0--0--0--0--0--0--0--0--|---8S------1-------8s--7--|
-------------------------------|--------------------------|
   
-----------------------|------------------------------|
-----------------------|------------------------------|
--5------10------5--7--|------------------------------|
--5------10------5--7--|--5----------------------5----|
--3-------8------3--5--|--3----------------------3----|
-----------------------|-------1--1--1--1--1--1-------|


       
-----------------------------|----------------------------------|
-----------------------------|----------------------------------|
-----------------------------|----------------------------------|
--6----------------5----8----|--6-------------------------------|
--4----------------3----6----|--4-------------------------------|
-------1--1--1--1------------|-------1--1--1--1--1--1--1--1--1--|

    
--------------------------|------------------------------|
--------------------------|------------------------------|
--------------------------|------------------------------|
--5--2--6--8--5--2--6--8--|--5----------------------5----|
--3--0--4--6--3--0--4--6--|--3----------------------3----|
--------------------------|-------1--1--1--1--1--1-------|


      
-----------------------------|----------------------------------|
-----------------------------|----------------------------------|
-----------------------------|----------------------------------|
--6----------------5----8----|--6-------------------------------|
--4----------------3----6----|--4-------------------------------|
-------1--1--1--1------------|-------1--1--1--1--1--1--1--1--1--|


   
--------------------------|---------------------|----------------------|
--------------------------|---------------------|----------------------|
--------------------------|---------------------|----------------------|
--5--2--6--8--5--2--6--8--|---------------------|----------------------|
--3--0--4--6--3--0--4--6--|--5-------------5----|--6---------5----8----|
--------------------------|--3-------------3----|--4---------3----6----|

   
--------------------|--------------------------|---------------------|
--------------------|--------------------------|---------------------|
--------------------|--------------------------|---------------------|
--------------------|--------------------------|---------------------|
--6-----------------|--5--2--6--8--5--2--6--8--|--5-------------5----|
--4-----------------|--3--0--4--6--3--0--4--6--|--3-------------3----|

  
----------------------|--------------------|--------------------------|
----------------------|--------------------|--------------------------|
----------------------|--------------------|--------------------------|
----------------------|--------------------|--------------------------|
--6---------5----8----|--6-----------------|--5--2--6--8--5--2--6--8--|
--4---------3----6----|--4-----------------|--3--0--4--6--3--0--4--6--|

  
----------------------|-----------------------|------------------------|
----------------------|-----------------------|------------------------|
--5------7------8--7--|---------8------10--8--|--7------8------10--10--|
----------------------|--6--------------------|------------------------|
----------------------|-----------------------|------------------------|
----------------------|-----------------------|------------------------|

 
---------------------------|-----------15--13--------L--|
---------------------------|----------------------------|
--12--------10h--12--12----|----------------------------|
---------------------------|--10S--12-------------------|
---------------------------|----------------------------|
---------------------------|----------------------------|


  
---------------------------|--------------------------|
---------------------------|----------11--9--------L--|
----------13--12--------L--|--10----------------------|
--12--13-------------------|------10------------------|
---------------------------|--------------------------|
---------------------------|--------------------------|
        
----------------------------------|------------------13--------|
--11--13--14--13--11--13--11--13--|----------------------------|
----------------------------------|--10--12--10--10------------|
----------------------------------|----------------------------|
----------------------------------|----------------------------|
----------------------------------|----------------------------|


---------------------------|------------------------|
---------------------------|--9--11--9--9--------L--|
--12--13--12--12--------L--|------------------------|
---------------------------|------------------------|
---------------------------|------------------------|
---------------------------|------------------------|


       
----------------------------------|------------------13--------|
--11--13--14--13--11--13--11--13--|----------------------------|
----------------------------------|--10--12--10--10------------|
----------------------------------|----------------------------|
----------------------------------|----------------------------|
----------------------------------|----------------------------|


   
----------------------------|---------------------------|--8----9----8----9----|
----------------------------|--9--11--9--9--9----11--9--|----------------------|
--12--13--12--12--12--------|---------------------------|----------------------|
----------------------------|---------------------------|----------------------|
----------------------------|---------------------------|----------------------|
----------------------------|---------------------------|----------------------|


 
--------------------------------------------|
--------------------------------------------|
--10-10-10-10-10-10-9-9-9-9-9-9-10-10-10-10-|
--------------------------------------------|
--------------------------------------------|
--------------------------------------------|

 
--------------------------------------------|
--------------------------------------------|
--9-9-9-9-9-9-10-10-10-10-10-10-10-10-10-10-|
--------------------------------------------|
--------------------------------------------|
--------------------------------------------|
 
--------------------------------------------------|
--------------------------------------------------|
--10-10-10-10-10-10-12-12-12-12-12-12-12-12-12-12-|
--------------------------------------------------|
--------------------------------------------------|
--------------------------------------------------|


--------------------------------------------------|
--------------------------------------------------|
--14-14-14-14-14-14-14-14-14-14-14-14-14-14-14-14-|
--------------------------------------------------|
--------------------------------------------------|
--------------------------------------------------|


  
------------------------------|-------------------------------|
---------17---------17----17--|--18--18--18---------17----17--|
--20b--------20b--------------|--------------20b--------------|
------------------------------|-------------------------------|
------------------------------|-------------------------------|
------------------------------|-------------------------------|


------------------------------|--23b----------------|------------------------|
---------17---------17----17--|---------------------|------------------------|
--20b--------20b--------------|---------------------|--5~--------7--8--7--8--|
------------------------------|---------------------|------------------------|
------------------------------|---------------------|------------------------|
------------------------------|---------------------|------------------------|

  
------------------------|------------------------|------------------------|
------------------------|------------------------|------------6--8--6--8--|
--5~--------7--8--7-----|----------8--10----8----|--7~--------------------|
---------------------8--|--6~--------------------|------------------------|
------------------------|------------------------|------------------------|

     
------------------------|------------------------|------------------------|
------------------------|------------------------|------------------------|
--5~--------7--8--7--8--|--5~--------7--8--7-----|----------8--10----8----|
------------------------|---------------------8--|--6~--------------------|
------------------------|------------------------|------------------------|
------------------------|------------------------|------------------------|


  
------------------------|-----------------------|-----------------------|
------------6--8--6--8--|-----------------------|-----------------------|
--7~--------------------|--5--------7--8--7--8--|--5--------7--8--7-----|
------------------------|-----------------------|--------------------8--|
------------------------|-----------------------|-----------------------|
------------------------|-----------------------|-----------------------|


   
-----------------------|-----------------------|-----------------------|
-----------------------|-----------6--8--6--8--|-----------------------|
---------8--10----8----|--7--------------------|--5--------7--8--7--8--|
--6--------------------|-----------------------|-----------------------|
-----------------------|-----------------------|-----------------------|
-----------------------|-----------------------|-----------------------|


 
-----------------------|-----------------------|-----------------------|
-----------------------|-----------------------|-----------6--8--6--8--|
--5--------7--8--7-----|---------8--10----8----|--7--------------------|
--------------------8--|--6--------------------|-----------------------|
-----------------------|-----------------------|-----------------------|
-----------------------|-----------------------|-----------------------|

    
---------------------|--------------------|--------------------|
---------------------|--------------------|--------------------|
--5------------L--8--|--5------------7----|--8------------7----|
--5------------L--8--|--5------------7----|--8------------7----|
--3------------L--6--|--3------------5----|--6------------5----|
---------------------|--------------------|--------------------|


  H        Q     Q       H.           E  E     H.           Q     
----------------------|---------------------|--------------------|
----------------------|---------------------|--------------------|
-----------8----10----|--5------------L--8--|--5------------7----|
--8--------8----10----|--5------------L--8--|--5------------7----|
--8--------6-----8----|--3------------L--6--|--3------------5----|
--6-------------------|---------------------|--------------------|

    
----------------------|-----------------------|----------------------|
----------------------|-----------------------|----------------------|
--8----7---------7----|--5----7----8----10----|--8----7---------7----|
--8----7----8----7----|--5----7----8----10----|--8----7----8----7----|
--6----5----8----5----|--3----5----6-----8----|--6----5----8----5----|
------------6---------|-----------------------|------------6---------|


    
-----------------------|----------------------||
-----------------------|----------------------||
--5----7----8----10----|--5--------5\---------||
--5----7----8----10----|--5--------5\---------||
--3----5----6-----8----|--3--------3\---------||
-----------------------|----------------------||
Tap to rate this tab
 
# A B C D E F G H I J K L M N O P Q R S T U V W X Y Z