Song name
# A B C D E F G H I J K L M N O P Q R S T U V W X Y Z

Cradle Of Filth - Nemesis tab

Band: Cradle of FIlth
Cd: nyempatimine (i know i spelled it wrong)
song: Nemesis
Tuning: drop C


-----------------------   ------------------------------------|
-----------------------   ------------------------------------|
----------5--5---------   ------------------------------------|
---2--2---5--5---5--5--   --9--11---12---11---8---------------|
---2--2---3--3---6--6--   ----------------------9---6---------|
---2--2----------6--6-- 1x  ----------------------------------| 2x

----------------     ------------------     ---------------------|
----------------     ------------------     ---------------------|
----------------     ------------------     ---------------------|
-------45444444-     ---------45444444-     ---------454444------|
----------------     --3333------------     --0000---------------|
-2222-----------2x   ------------------2x   ---------------------|

pm---                 pm---                  pm---

ill be getting to the other parts later, cya, questions email me at destined_for_destruction@hotmail.com
Tap to rate this tab
 
# A B C D E F G H I J K L M N O P Q R S T U V W X Y Z